  0
SECTION
  2
HEADER
  9
$ACADVER
  1
AC1015
  9
$ACADMAINTVER
 70
     6
  9
$DWGCODEPAGE
  3
ANSI_1254
  9
$INSBASE
 10
0.0
 20
0.0
 30
0.0
  9
$EXTMIN
 10
0.0
 20
0.0
 30
0.0
  9
$EXTMAX
 10
279.4
 20
215.9
 30
0.0
  9
$LIMMIN
 10
0.0
 20
0.0
  9
$LIMMAX
 10
279.4
 20
215.9
  9
$ORTHOMODE
 70
     0
  9
$REGENMODE
 70
     1
  9
$FILLMODE
 70
     1
  9
$QTEXTMODE
 70
     0
  9
$MIRRTEXT
 70
     1
  9
$LTSCALE
 40
1.0
  9
$ATTMODE
 70
     1
  9
$TEXTSIZE
 40
3.5
  9
$TRACEWID
 40
1.0
  9
$TEXTSTYLE
  7
Standard
  9
$CLAYER
  8
0
  9
$CELTYPE
  6
ByLayer
  9
$CECOLOR
 62
   256
  9
$CELTSCALE
 40
1.0
  9
$DISPSILH
 70
     0
  9
$DIMSCALE
 40
1.0
  9
$DIMASZ
 40
3.5
  9
$DIMEXO
 40
1.0
  9
$DIMDLI
 40
3.75
  9
$DIMRND
 40
0.0
  9
$DIMDLE
 40
0.0
  9
$DIMEXE
 40
1.0
  9
$DIMTP
 40
0.0
  9
$DIMTM
 40
0.0
  9
$DIMTXT
 40
3.5
  9
$DIMCEN
 40
2.5
  9
$DIMTSZ
 40
0.0
  9
$DIMTOL
 70
     0
  9
$DIMLIM
 70
     0
  9
$DIMTIH
 70
     1
  9
$DIMTOH
 70
     1
  9
$DIMSE1
 70
     0
  9
$DIMSE2
 70
     0
  9
$DIMTAD
 70
     1
  9
$DIMZIN
 70
     0
  9
$DIMBLK
  1

  9
$DIMASO
 70
     1
  9
$DIMSHO
 70
     1
  9
$DIMPOST
  1

  9
$DIMAPOST
  1

  9
$DIMALT
 70
     0
  9
$DIMALTD
 70
     3
  9
$DIMALTF
 40
0.0393700787
  9
$DIMLFAC
 40
1.0
  9
$DIMTOFL
 70
     1
  9
$DIMTVP
 40
0.0
  9
$DIMTIX
 70
     0
  9
$DIMSOXD
 70
     0
  9
$DIMSAH
 70
     0
  9
$DIMBLK1
  1

  9
$DIMBLK2
  1

  9
$DIMSTYLE
  2
ISO-25
  9
$DIMCLRD
 70
     0
  9
$DIMCLRE
 70
     0
  9
$DIMCLRT
 70
     0
  9
$DIMTFAC
 40
1.0
  9
$DIMGAP
 40
1.524
  9
$DIMJUST
 70
     0
  9
$DIMSD1
 70
     0
  9
$DIMSD2
 70
     0
  9
$DIMTOLJ
 70
     0
  9
$DIMTZIN
 70
     0
  9
$DIMALTZ
 70
     0
  9
$DIMALTTZ
 70
     0
  9
$DIMUPT
 70
     0
  9
$DIMDEC
 70
     2
  9
$DIMTDEC
 70
     2
  9
$DIMALTU
 70
     2
  9
$DIMALTTD
 70
     3
  9
$DIMTXSTY
  7
Standard
  9
$DIMAUNIT
 70
     0
  9
$DIMADEC
 70
     2
  9
$DIMALTRND
 40
0.0
  9
$DIMAZIN
 70
     0
  9
$DIMDSEP
 70
    44
  9
$DIMATFIT
 70
     3
  9
$DIMFRAC
 70
     0
  9
$DIMLDRBLK
  1

  9
$DIMLUNIT
 70
     2
  9
$DIMLWD
 70
    -2
  9
$DIMLWE
 70
    -2
  9
$DIMTMOVE
 70
     0
  9
$LUNITS
 70
     2
  9
$LUPREC
 70
     2
  9
$SKETCHINC
 40
1.0
  9
$FILLETRAD
 40
10.0
  9
$AUNITS
 70
     0
  9
$AUPREC
 70
     2
  9
$MENU
  1
.
  9
$ELEVATION
 40
0.0
  9
$PELEVATION
 40
0.0
  9
$THICKNESS
 40
0.0
  9
$LIMCHECK
 70
     0
  9
$CHAMFERA
 40
0.0
  9
$CHAMFERB
 40
0.0
  9
$CHAMFERC
 40
0.0
  9
$CHAMFERD
 40
0.0
  9
$SKPOLY
 70
     0
  9
$TDCREATE
 40
2459741.614406424
  9
$TDUCREATE
 40
2459741.489406424
  9
$TDUPDATE
 40
2459741.614406609
  9
$TDUUPDATE
 40
2459741.489406609
  9
$TDINDWG
 40
0.0000000116
  9
$TDUSRTIMER
 40
0.0000000116
  9
$USRTIMER
 70
     1
  9
$ANGBASE
 50
0.0
  9
$ANGDIR
 70
     0
  9
$PDMODE
 70
     0
  9
$PDSIZE
 40
-1.0
  9
$PLINEWID
 40
0.0
  9
$SPLFRAME
 70
     0
  9
$SPLINETYPE
 70
     6
  9
$SPLINESEGS
 70
     8
  9
$HANDSEED
  5
13B
  9
$SURFTAB1
 70
     6
  9
$SURFTAB2
 70
     6
  9
$SURFTYPE
 70
     6
  9
$SURFU
 70
     6
  9
$SURFV
 70
     6
  9
$UCSBASE
  2

  9
$UCSNAME
  2

  9
$UCSORG
 10
0.0
 20
0.0
 30
0.0
  9
$UCSXDIR
 10
1.0
 20
0.0
 30
0.0
  9
$UCSYDIR
 10
0.0
 20
1.0
 30
0.0
  9
$UCSORTHOREF
  2

  9
$UCSORTHOVIEW
 70
     0
  9
$UCSORGTOP
 10
0.0
 20
0.0
 30
0.0
  9
$UCSORGBOTTOM
 10
0.0
 20
0.0
 30
0.0
  9
$UCSORGLEFT
 10
0.0
 20
0.0
 30
0.0
  9
$UCSORGRIGHT
 10
0.0
 20
0.0
 30
0.0
  9
$UCSORGFRONT
 10
0.0
 20
0.0
 30
0.0
  9
$UCSORGBACK
 10
0.0
 20
0.0
 30
0.0
  9
$PUCSBASE
  2

  9
$PUCSNAME
  2

  9
$PUCSORG
 10
0.0
 20
0.0
 30
0.0
  9
$PUCSXDIR
 10
1.0
 20
0.0
 30
0.0
  9
$PUCSYDIR
 10
0.0
 20
1.0
 30
0.0
  9
$PUCSORTHOREF
  2

  9
$PUCSORTHOVIEW
 70
     0
  9
$PUCSORGTOP
 10
0.0
 20
0.0
 30
0.0
  9
$PUCSORGBOTTOM
 10
0.0
 20
0.0
 30
0.0
  9
$PUCSORGLEFT
 10
0.0
 20
0.0
 30
0.0
  9
$PUCSORGRIGHT
 10
0.0
 20
0.0
 30
0.0
  9
$PUCSORGFRONT
 10
0.0
 20
0.0
 30
0.0
  9
$PUCSORGBACK
 10
0.0
 20
0.0
 30
0.0
  9
$USERI1
 70
     0
  9
$USERI2
 70
     0
  9
$USERI3
 70
     0
  9
$USERI4
 70
     0
  9
$USERI5
 70
     0
  9
$USERR1
 40
0.0
  9
$USERR2
 40
0.0
  9
$USERR3
 40
0.0
  9
$USERR4
 40
0.0
  9
$USERR5
 40
0.0
  9
$WORLDVIEW
 70
     1
  9
$SHADEDGE
 70
     3
  9
$SHADEDIF
 70
    70
  9
$TILEMODE
 70
     1
  9
$MAXACTVP
 70
    64
  9
$PINSBASE
 10
0.0
 20
0.0
 30
0.0
  9
$PLIMCHECK
 70
     0
  9
$PEXTMIN
 10
1.0000000000E+20
 20
1.0000000000E+20
 30
1.0000000000E+20
  9
$PEXTMAX
 10
-1.0000000000E+20
 20
-1.0000000000E+20
 30
-1.0000000000E+20
  9
$PLIMMIN
 10
0.0
 20
0.0
  9
$PLIMMAX
 10
420.0
 20
297.0
  9
$UNITMODE
 70
     0
  9
$VISRETAIN
 70
     1
  9
$PLINEGEN
 70
     0
  9
$PSLTSCALE
 70
     1
  9
$TREEDEPTH
 70
  3020
  9
$CMLSTYLE
  2
Standard
  9
$CMLJUST
 70
     0
  9
$CMLSCALE
 40
20.0
  9
$PROXYGRAPHICS
 70
     1
  9
$MEASUREMENT
 70
     1
  9
$CELWEIGHT
370
    -1
  9
$ENDCAPS
280
     0
  9
$JOINSTYLE
280
     0
  9
$LWDISPLAY
290
     1
  9
$INSUNITS
 70
     4
  9
$HYPERLINKBASE
  1

  9
$STYLESHEET
  1

  9
$XEDIT
290
     1
  9
$CEPSNTYPE
380
     0
  9
$PSTYLEMODE
290
     1
  9
$FINGERPRINTGUID
  2
{a6096c3d-b2ea-4b4e-bd97-6e834e9fe05a}
  9
$VERSIONGUID
  2
{FAEB1C32-E019-11D5-929B-00C0DF256EC4}
  9
$EXTNAMES
290
     1
  9
$PSVPSCALE
 40
0.0
  9
$OLESTARTUP
290
     0
  0
ENDSEC
  0
SECTION
  2
CLASSES
  0
CLASS
  1
ACDBDICTIONARYWDFLT
  2
AcDbDictionaryWithDefault
  3
ObjectDBX Classes
 90
        0
280
     0
281
     0
  0
CLASS
  1
VISUALSTYLE
  2
AcDbVisualStyle
  3
ObjectDBX Classes
 90
     4095
280
     0
281
     0
  0
CLASS
  1
MATERIAL
  2
AcDbMaterial
  3
ObjectDBX Classes
 90
     1153
280
     0
281
     0
  0
CLASS
  1
SCALE
  2
AcDbScale
  3
ObjectDBX Classes
 90
     1153
280
     0
281
     0
  0
CLASS
  1
TABLESTYLE
  2
AcDbTableStyle
  3
ObjectDBX Classes
 90
     4095
280
     0
281
     0
  0
CLASS
  1
MLEADERSTYLE
  2
AcDbMLeaderStyle
  3
ACDB_MLEADERSTYLE_CLASS
 90
     4095
280
     0
281
     0
  0
CLASS
  1
SUN
  2
AcDbSun
  3
SCENEOE
 90
     1153
280
     0
281
     0
  0
CLASS
  1
ACDBPLACEHOLDER
  2
AcDbPlaceHolder
  3
ObjectDBX Classes
 90
        0
280
     0
281
     0
  0
CLASS
  1
LAYOUT
  2
AcDbLayout
  3
ObjectDBX Classes
 90
        0
280
     0
281
     0
  0
ENDSEC
  0
SECTION
  2
TABLES
  0
TABLE
  2
VPORT
  5
8
330
0
100
AcDbSymbolTable
 70
     1
  0
VPORT
  5
29
330
8
100
AcDbSymbolTableRecord
100
AcDbViewportTableRecord
  2
*Active
 70
     0
 10
0.0
 20
0.0
 11
1.0
 21
1.0
 12
139.7
 22
107.95
 13
0.0
 23
0.0
 14
10.0
 24
10.0
 15
10.0
 25
10.0
 16
0.0
 26
0.0
 36
1.0
 17
0.0
 27
0.0
 37
0.0
 40
215.9
 41
1.2941176471
 42
50.0
 43
0.0
 44
0.0
 50
0.0
 51
0.0
 71
     0
 72
  2000
 73
     1
 74
     3
 75
     0
 76
     0
 77
     0
 78
     0
281
     0
 65
     1
110
0.0
120
0.0
130
0.0
111
1.0
121
0.0
131
0.0
112
0.0
122
1.0
132
0.0
 79
     0
146
0.0
  0
ENDTAB
  0
TABLE
  2
LTYPE
  5
5
330
0
100
AcDbSymbolTable
 70
     6
  0
LTYPE
  5
14
330
5
100
AcDbSymbolTableRecord
100
AcDbLinetypeTableRecord
  2
ByBlock
 70
     0
  3

 72
    65
 73
     0
 40
0.0
  0
LTYPE
  5
15
330
5
100
AcDbSymbolTableRecord
100
AcDbLinetypeTableRecord
  2
ByLayer
 70
     0
  3

 72
    65
 73
     0
 40
0.0
  0
LTYPE
  5
16
330
5
100
AcDbSymbolTableRecord
100
AcDbLinetypeTableRecord
  2
Continuous
 70
     0
  3
Solid line
 72
    65
 73
     0
 40
0.0
  0
LTYPE
  5
6E
330
5
100
AcDbSymbolTableRecord
100
AcDbLinetypeTableRecord
  2
HIDDEN
 70
     0
  3
Hidden __ __ __ __ __ __ __ __ __ __ __ __ __ __
 72
    65
 73
     2
 40
1.905
 49
1.27
 74
     0
 49
-0.635
 74
     0
  0
LTYPE
  5
6F
330
5
100
AcDbSymbolTableRecord
100
AcDbLinetypeTableRecord
  2
PHANTOM
 70
     0
  3
Phantom ______  __  __  ______  __  __  ______
 72
    65
 73
     6
 40
12.7
 49
6.35
 74
     0
 49
-1.27
 74
     0
 49
1.27
 74
     0
 49
-1.27
 74
     0
 49
1.27
 74
     0
 49
-1.27
 74
     0
  0
LTYPE
  5
70
330
5
100
AcDbSymbolTableRecord
100
AcDbLinetypeTableRecord
  2
CENTER
 70
     0
  3
Center ____ _ ____ _ ____ _ ____ _ ____ _ ____
 72
    65
 73
     4
 40
10.16
 49
6.35
 74
     0
 49
-1.27
 74
     0
 49
1.27
 74
     0
 49
-1.27
 74
     0
  0
LTYPE
  5
71
330
5
100
AcDbSymbolTableRecord
100
AcDbLinetypeTableRecord
  2
CENTERX2
 70
     0
  3
Center (2x) ________  __  ________  __  _____
 72
    65
 73
     4
 40
20.32
 49
12.7
 74
     0
 49
-2.54
 74
     0
 49
2.54
 74
     0
 49
-2.54
 74
     0
  0
LTYPE
  5
72
330
5
100
AcDbSymbolTableRecord
100
AcDbLinetypeTableRecord
  2
DOT2
 70
     0
  3
Dot (.5x) ........................................
 72
    65
 73
     2
 40
0.635
 49
0.0
 74
     0
 49
-0.635
 74
     0
  0
ENDTAB
  0
TABLE
  2
LAYER
  5
2
330
0
100
AcDbSymbolTable
 70
    17
  0
LAYER
  5
10
330
2
100
AcDbSymbolTableRecord
100
AcDbLayerTableRecord
  2
0
 70
     0
 62
     7
  6
Continuous
370
    -3
390
F
  0
LAYER
  5
73
330
2
100
AcDbSymbolTableRecord
100
AcDbLayerTableRecord
  2
FORMAT
 70
     0
 62
     7
  6
Continuous
370
    -3
390
F
  0
LAYER
  5
74
330
2
100
AcDbSymbolTableRecord
100
AcDbLayerTableRecord
  2
YARDIMCI_GEOMETRI
 70
     0
 62
    -6
  6
Continuous
290
     0
370
    -3
390
F
  0
LAYER
  5
75
330
2
100
AcDbSymbolTableRecord
100
AcDbLayerTableRecord
  2
SAYFA_CERCEVESI
 70
     0
 62
     7
  6
Continuous
370
    25
390
F
  0
LAYER
  5
76
330
2
100
AcDbSymbolTableRecord
100
AcDbLayerTableRecord
  2
ANTET
 70
     0
 62
     7
  6
Continuous
370
    -3
390
F
  0
LAYER
  5
77
330
2
100
AcDbSymbolTableRecord
100
AcDbLayerTableRecord
  2
OLCU
 70
     0
 62
   150
  6
Continuous
370
    -3
390
F
  0
LAYER
  5
78
330
2
100
AcDbSymbolTableRecord
100
AcDbLayerTableRecord
  2
METIN
 70
     0
 62
    96
  6
Continuous
370
    -3
390
F
  0
LAYER
  5
79
330
2
100
AcDbSymbolTableRecord
100
AcDbLayerTableRecord
  2
BALON
 70
     0
 62
     5
  6
Continuous
370
    -3
390
F
  0
LAYER
  5
7A
330
2
100
AcDbSymbolTableRecord
100
AcDbLayerTableRecord
  2
VURGU
 70
     0
 62
     7
  6
Continuous
370
    -3
390
F
  0
LAYER
  5
7B
330
2
100
AcDbSymbolTableRecord
100
AcDbLayerTableRecord
  2
SILIK
 70
     0
 62
     7
  6
Continuous
370
    -3
390
F
  0
LAYER
  5
7C
330
2
100
AcDbSymbolTableRecord
100
AcDbLayerTableRecord
  2
MODEL
 70
     0
 62
     7
  6
Continuous
370
    -3
390
F
  0
LAYER
  5
7D
330
2
100
AcDbSymbolTableRecord
100
AcDbLayerTableRecord
  2
DETAYLANDıRMA
 70
     0
 62
   190
  6
Continuous
370
    -3
390
F
  0
LAYER
  5
7E
330
2
100
AcDbSymbolTableRecord
100
AcDbLayerTableRecord
  2
TOLERANS
 70
     0
 62
   230
  6
Continuous
370
    -3
390
F
  0
LAYER
  5
7F
330
2
100
AcDbSymbolTableRecord
100
AcDbLayerTableRecord
  2
MERKEZ_CIZGILERI
 70
     0
 62
    30
  6
Continuous
370
    -3
390
F
  0
LAYER
  5
80
330
2
100
AcDbSymbolTableRecord
100
AcDbLayerTableRecord
  2
KESIT-DETAY_CIZGILERI
 70
     0
 62
     7
  6
Continuous
370
    -3
390
F
  0
LAYER
  5
81
330
2
100
AcDbSymbolTableRecord
100
AcDbLayerTableRecord
  2
\U+041E\U+0421\U+0415\U+0412\U+042B\U+0415
 70
     0
 62
     7
  6
Continuous
370
    -3
390
F
  0
LAYER
  5
82
330
2
100
AcDbSymbolTableRecord
100
AcDbLayerTableRecord
  2
\U+0412\U+041E\U+0414\U+042F\U+041D\U+042B\U+0415_\U+0417\U+041D\U+0410\U+041A\U+0418
 70
     0
 62
    11
  6
Continuous
370
    -3
390
F
  0
ENDTAB
  0
TABLE
  2
STYLE
  5
3
330
0
100
AcDbSymbolTable
 70
     1
  0
STYLE
  5
11
330
3
100
AcDbSymbolTableRecord
100
AcDbTextStyleTableRecord
  2
Standard
 70
     0
 40
0.0
 41
1.0
 50
0.0
 71
     0
 42
3.5
  3
txt
  4

  0
ENDTAB
  0
TABLE
  2
VIEW
  5
6
330
0
100
AcDbSymbolTable
 70
     0
  0
ENDTAB
  0
TABLE
  2
UCS
  5
7
330
0
100
AcDbSymbolTable
 70
     0
  0
ENDTAB
  0
TABLE
  2
APPID
  5
9
330
0
100
AcDbSymbolTable
 70
     1
  0
APPID
  5
12
330
9
100
AcDbSymbolTableRecord
100
AcDbRegAppTableRecord
  2
ACAD
 70
     0
  0
ENDTAB
  0
TABLE
  2
DIMSTYLE
  5
A
330
0
100
AcDbSymbolTable
 70
     1
100
AcDbDimStyleTable
  0
DIMSTYLE
105
27
330
A
100
AcDbSymbolTableRecord
100
AcDbDimStyleTableRecord
  2
ISO-25
 70
     0
 41
2.5
 42
0.625
 43
3.75
 44
1.25
 73
     0
 74
     0
 77
     1
 78
     8
140
2.5
141
2.5
143
0.0393700787
147
0.625
171
     3
172
     1
178
     0
271
     2
272
     2
274
     3
278
    44
283
     0
284
     8
340
11
  0
ENDTAB
  0
TABLE
  2
BLOCK_RECORD
  5
1
330
0
100
AcDbSymbolTable
 70
     5
  0
BLOCK_RECORD
  5
1F
330
1
100
AcDbSymbolTableRecord
100
AcDbBlockTableRecord
  2
*Model_Space
340
22
  0
BLOCK_RECORD
  5
1B
330
1
100
AcDbSymbolTableRecord
100
AcDbBlockTableRecord
  2
*Paper_Space
340
1E
  0
BLOCK_RECORD
  5
23
330
1
100
AcDbSymbolTableRecord
100
AcDbBlockTableRecord
  2
*Paper_Space0
340
26
  0
BLOCK_RECORD
  5
C4
330
1
100
AcDbSymbolTableRecord
100
AcDbBlockTableRecord
  2
SW_CENTERMARKSYMBOL_0
340
0
102
{BLKREFS
331
CF
102
}
  0
BLOCK_RECORD
  5
EF
330
1
100
AcDbSymbolTableRecord
100
AcDbBlockTableRecord
  2
SW_CENTERMARKSYMBOL_1
340
0
102
{BLKREFS
331
FA
102
}
  0
BLOCK_RECORD
  5
FB
330
1
100
AcDbSymbolTableRecord
100
AcDbBlockTableRecord
  2
SW_CENTERMARKSYMBOL_2
340
0
102
{BLKREFS
331
106
102
}
  0
BLOCK_RECORD
  5
107
330
1
100
AcDbSymbolTableRecord
100
AcDbBlockTableRecord
  2
SW_CENTERMARKSYMBOL_3
340
0
102
{BLKREFS
331
112
102
}
  0
ENDTAB
  0
ENDSEC
  0
SECTION
  2
BLOCKS
  0
BLOCK
  5
20
330
1F
100
AcDbEntity
  8
0
100
AcDbBlockBegin
  2
*Model_Space
 70
     0
 10
0.0
 20
0.0
 30
0.0
  3
*Model_Space
  1

  0
ENDBLK
  5
21
330
1F
100
AcDbEntity
  8
0
100
AcDbBlockEnd
  0
BLOCK
  5
1C
330
1B
100
AcDbEntity
 67
     1
  8
0
100
AcDbBlockBegin
  2
*Paper_Space
 70
     0
 10
0.0
 20
0.0
 30
0.0
  3
*Paper_Space
  1

  0
ENDBLK
  5
1D
330
1B
100
AcDbEntity
 67
     1
  8
0
100
AcDbBlockEnd
  0
BLOCK
  5
24
330
23
100
AcDbEntity
  8
0
100
AcDbBlockBegin
  2
*Paper_Space0
 70
     0
 10
0.0
 20
0.0
 30
0.0
  3
*Paper_Space0
  1

  0
ENDBLK
  5
25
330
23
100
AcDbEntity
  8
0
100
AcDbBlockEnd
  0
BLOCK
  5
C5
330
C4
100
AcDbEntity
  8
0
100
AcDbBlockBegin
  2
SW_CENTERMARKSYMBOL_0
 70
     0
 10
0.0
 20
0.0
 30
0.0
  3
SW_CENTERMARKSYMBOL_0
  1

  0
LINE
  5
C7
330
C4
100
AcDbEntity
  8
FORMAT
 62
     0
100
AcDbLine
 10
0.0
 20
0.0
 30
0.0
 11
0.0
 21
2.5
 31
0.0
  0
LINE
  5
C8
330
C4
100
AcDbEntity
  8
FORMAT
 62
     0
100
AcDbLine
 10
0.0
 20
0.0
 30
0.0
 11
-2.5
 21
0.0
 31
0.0
  0
LINE
  5
C9
330
C4
100
AcDbEntity
  8
FORMAT
 62
     0
100
AcDbLine
 10
0.0
 20
0.0
 30
0.0
 11
0.0
 21
-2.5
 31
0.0
  0
LINE
  5
CA
330
C4
100
AcDbEntity
  8
FORMAT
 62
     0
100
AcDbLine
 10
0.0
 20
0.0
 30
0.0
 11
2.5
 21
0.0
 31
0.0
  0
LINE
  5
CB
330
C4
100
AcDbEntity
  8
FORMAT
 62
     0
100
AcDbLine
 10
0.0
 20
5.0
 30
0.0
 11
0.0
 21
15.5
 31
0.0
  0
LINE
  5
CC
330
C4
100
AcDbEntity
  8
FORMAT
 62
     0
100
AcDbLine
 10
-5.0
 20
0.0
 30
0.0
 11
-15.5
 21
0.0
 31
0.0
  0
LINE
  5
CD
330
C4
100
AcDbEntity
  8
FORMAT
 62
     0
100
AcDbLine
 10
0.0
 20
-5.0
 30
0.0
 11
0.0
 21
-15.5
 31
0.0
  0
LINE
  5
CE
330
C4
100
AcDbEntity
  8
FORMAT
 62
     0
100
AcDbLine
 10
5.0
 20
0.0
 30
0.0
 11
15.5
 21
0.0
 31
0.0
  0
ENDBLK
  5
C6
330
C4
100
AcDbEntity
  8
0
100
AcDbBlockEnd
  0
BLOCK
  5
F0
330
EF
100
AcDbEntity
  8
0
100
AcDbBlockBegin
  2
SW_CENTERMARKSYMBOL_1
 70
     0
 10
0.0
 20
0.0
 30
0.0
  3
SW_CENTERMARKSYMBOL_1
  1

  0
LINE
  5
F2
330
EF
100
AcDbEntity
  8
FORMAT
 62
     0
100
AcDbLine
 10
0.0
 20
0.0
 30
0.0
 11
0.0
 21
2.5
 31
0.0
  0
LINE
  5
F3
330
EF
100
AcDbEntity
  8
FORMAT
 62
     0
100
AcDbLine
 10
0.0
 20
0.0
 30
0.0
 11
-2.5
 21
0.0
 31
0.0
  0
LINE
  5
F4
330
EF
100
AcDbEntity
  8
FORMAT
 62
     0
100
AcDbLine
 10
0.0
 20
0.0
 30
0.0
 11
0.0
 21
-2.5
 31
0.0
  0
LINE
  5
F5
330
EF
100
AcDbEntity
  8
FORMAT
 62
     0
100
AcDbLine
 10
0.0
 20
0.0
 30
0.0
 11
2.5
 21
0.0
 31
0.0
  0
LINE
  5
F6
330
EF
100
AcDbEntity
  8
FORMAT
 62
     0
100
AcDbLine
 10
0.0
 20
5.0
 30
0.0
 11
0.0
 21
18.5
 31
0.0
  0
LINE
  5
F7
330
EF
100
AcDbEntity
  8
FORMAT
 62
     0
100
AcDbLine
 10
-5.0
 20
0.0
 30
0.0
 11
-18.5
 21
0.0
 31
0.0
  0
LINE
  5
F8
330
EF
100
AcDbEntity
  8
FORMAT
 62
     0
100
AcDbLine
 10
0.0
 20
-5.0
 30
0.0
 11
0.0
 21
-18.5
 31
0.0
  0
LINE
  5
F9
330
EF
100
AcDbEntity
  8
FORMAT
 62
     0
100
AcDbLine
 10
5.0
 20
0.0
 30
0.0
 11
18.5
 21
0.0
 31
0.0
  0
ENDBLK
  5
F1
330
EF
100
AcDbEntity
  8
0
100
AcDbBlockEnd
  0
BLOCK
  5
FC
330
FB
100
AcDbEntity
  8
0
100
AcDbBlockBegin
  2
SW_CENTERMARKSYMBOL_2
 70
     0
 10
0.0
 20
0.0
 30
0.0
  3
SW_CENTERMARKSYMBOL_2
  1

  0
LINE
  5
FE
330
FB
100
AcDbEntity
  8
FORMAT
 62
     0
100
AcDbLine
 10
0.0
 20
0.0
 30
0.0
 11
0.0
 21
2.5
 31
0.0
  0
LINE
  5
FF
330
FB
100
AcDbEntity
  8
FORMAT
 62
     0
100
AcDbLine
 10
0.0
 20
0.0
 30
0.0
 11
-2.5
 21
0.0
 31
0.0
  0
LINE
  5
100
330
FB
100
AcDbEntity
  8
FORMAT
 62
     0
100
AcDbLine
 10
0.0
 20
0.0
 30
0.0
 11
0.0
 21
-2.5
 31
0.0
  0
LINE
  5
101
330
FB
100
AcDbEntity
  8
FORMAT
 62
     0
100
AcDbLine
 10
0.0
 20
0.0
 30
0.0
 11
2.5
 21
0.0
 31
0.0
  0
LINE
  5
102
330
FB
100
AcDbEntity
  8
FORMAT
 62
     0
100
AcDbLine
 10
0.0
 20
5.0
 30
0.0
 11
0.0
 21
9.5
 31
0.0
  0
LINE
  5
103
330
FB
100
AcDbEntity
  8
FORMAT
 62
     0
100
AcDbLine
 10
-5.0
 20
0.0
 30
0.0
 11
-9.5
 21
0.0
 31
0.0
  0
LINE
  5
104
330
FB
100
AcDbEntity
  8
FORMAT
 62
     0
100
AcDbLine
 10
0.0
 20
-5.0
 30
0.0
 11
0.0
 21
-9.5
 31
0.0
  0
LINE
  5
105
330
FB
100
AcDbEntity
  8
FORMAT
 62
     0
100
AcDbLine
 10
5.0
 20
0.0
 30
0.0
 11
9.5
 21
0.0
 31
0.0
  0
ENDBLK
  5
FD
330
FB
100
AcDbEntity
  8
0
100
AcDbBlockEnd
  0
BLOCK
  5
108
330
107
100
AcDbEntity
  8
0
100
AcDbBlockBegin
  2
SW_CENTERMARKSYMBOL_3
 70
     0
 10
0.0
 20
0.0
 30
0.0
  3
SW_CENTERMARKSYMBOL_3
  1

  0
LINE
  5
10A
330
107
100
AcDbEntity
  8
FORMAT
 62
     0
100
AcDbLine
 10
0.0
 20
0.0
 30
0.0
 11
0.0
 21
2.5
 31
0.0
  0
LINE
  5
10B
330
107
100
AcDbEntity
  8
FORMAT
 62
     0
100
AcDbLine
 10
0.0
 20
0.0
 30
0.0
 11
-2.5
 21
0.0
 31
0.0
  0
LINE
  5
10C
330
107
100
AcDbEntity
  8
FORMAT
 62
     0
100
AcDbLine
 10
0.0
 20
0.0
 30
0.0
 11
0.0
 21
-2.5
 31
0.0
  0
LINE
  5
10D
330
107
100
AcDbEntity
  8
FORMAT
 62
     0
100
AcDbLine
 10
0.0
 20
0.0
 30
0.0
 11
2.5
 21
0.0
 31
0.0
  0
LINE
  5
10E
330
107
100
AcDbEntity
  8
FORMAT
 62
     0
100
AcDbLine
 10
0.0
 20
5.0
 30
0.0
 11
0.0
 21
9.5
 31
0.0
  0
LINE
  5
10F
330
107
100
AcDbEntity
  8
FORMAT
 62
     0
100
AcDbLine
 10
-5.0
 20
0.0
 30
0.0
 11
-9.5
 21
0.0
 31
0.0
  0
LINE
  5
110
330
107
100
AcDbEntity
  8
FORMAT
 62
     0
100
AcDbLine
 10
0.0
 20
-5.0
 30
0.0
 11
0.0
 21
-9.5
 31
0.0
  0
LINE
  5
111
330
107
100
AcDbEntity
  8
FORMAT
 62
     0
100
AcDbLine
 10
5.0
 20
0.0
 30
0.0
 11
9.5
 21
0.0
 31
0.0
  0
ENDBLK
  5
109
330
107
100
AcDbEntity
  8
0
100
AcDbBlockEnd
  0
ENDSEC
  0
SECTION
  2
ENTITIES
  0
LINE
  5
83
330
1F
100
AcDbEntity
  8
0
  6
Continuous
 62
     7
370
    25
100
AcDbLine
 10
171.1807140607
 20
36.7384285714
 30
0.0
 11
201.1807140607
 21
36.7384285714
 31
0.0
  0
LINE
  5
84
330
1F
100
AcDbEntity
  8
0
  6
Continuous
 62
     7
370
    25
100
AcDbLine
 10
81.1807140607
 20
36.7384285714
 30
0.0
 11
111.1807140607
 21
36.7384285714
 31
0.0
  0
LINE
  5
85
330
1F
100
AcDbEntity
  8
0
  6
Continuous
 62
     7
370
    25
100
AcDbLine
 10
84.1991924385
 20
113.7384285714
 30
0.0
 11
81.1807140607
 21
113.7384285714
 31
0.0
  0
LINE
  5
86
330
1F
100
AcDbEntity
  8
0
  6
Continuous
 62
     7
370
    25
100
AcDbLine
 10
125.2376714988
 20
113.7384285714
 30
0.0
 11
98.1807140607
 21
113.7384285714
 31
0.0
  0
LINE
  5
87
330
1F
100
AcDbEntity
  8
0
  6
Continuous
 62
     7
370
    25
100
AcDbLine
 10
184.1807140607
 20
113.7384285714
 30
0.0
 11
157.1441751685
 21
113.7384285714
 31
0.0
  0
LINE
  5
88
330
1F
100
AcDbEntity
  8
0
  6
Continuous
 62
     7
370
    25
100
AcDbLine
 10
201.1807140607
 20
113.7384285714
 30
0.0
 11
198.162235683
 21
113.7384285714
 31
0.0
  0
LINE
  5
89
330
1F
100
AcDbEntity
  8
0
  6
Continuous
 62
     7
370
    25
100
AcDbLine
 10
125.1807140607
 20
161.7384285714
 30
0.0
 11
125.1807140607
 21
113.7384285714
 31
0.0
  0
LINE
  5
8A
330
1F
100
AcDbEntity
  8
0
  6
Continuous
 62
     7
370
    25
100
AcDbLine
 10
157.1807140607
 20
113.7233027121
 30
0.0
 11
157.1807140607
 21
161.7384285714
 31
0.0
  0
LINE
  5
8B
330
1F
100
AcDbEntity
  8
0
  6
Continuous
 62
     7
370
    25
100
AcDbLine
 10
98.1807140607
 20
113.7384285714
 30
0.0
 11
98.1807140607
 21
128.7384285714
 31
0.0
  0
LINE
  5
8C
330
1F
100
AcDbEntity
  8
0
  6
Continuous
 62
     7
370
    25
100
AcDbLine
 10
84.1807140607
 20
128.7384285714
 30
0.0
 11
84.1807140607
 21
113.7350829742
 31
0.0
  0
LINE
  5
8D
330
1F
100
AcDbEntity
  8
0
  6
Continuous
 62
     7
370
    25
100
AcDbLine
 10
198.1807140607
 20
113.7350829742
 30
0.0
 11
198.1807140607
 21
128.7384285714
 31
0.0
  0
LINE
  5
8E
330
1F
100
AcDbEntity
  8
0
  6
Continuous
 62
     7
370
    25
100
AcDbLine
 10
184.1807140607
 20
128.7384285714
 30
0.0
 11
184.1807140607
 21
113.7384285714
 31
0.0
  0
LINE
  5
8F
330
1F
100
AcDbEntity
  8
0
  6
Continuous
 62
     7
370
    25
100
AcDbLine
 10
201.1807140607
 20
77.2384285714
 30
0.0
 11
81.1807140607
 21
77.2384285714
 31
0.0
  0
LINE
  5
90
330
1F
100
AcDbEntity
  8
0
  6
Continuous
 62
     7
370
    25
100
AcDbLine
 10
81.1807140607
 20
84.2384285714
 30
0.0
 11
81.1807140607
 21
77.2384285714
 31
0.0
  0
LINE
  5
91
330
1F
100
AcDbEntity
  8
0
  6
Continuous
 62
     7
370
    25
100
AcDbLine
 10
201.1807140607
 20
84.2384285714
 30
0.0
 11
81.1807140607
 21
84.2384285714
 31
0.0
  0
LINE
  5
92
330
1F
100
AcDbEntity
  8
0
  6
Continuous
 62
     7
370
    25
100
AcDbLine
 10
201.1807140607
 20
84.2384285714
 30
0.0
 11
201.1807140607
 21
77.2384285714
 31
0.0
  0
LINE
  5
93
330
1F
100
AcDbEntity
  8
0
  6
Continuous
 62
     7
370
    25
100
AcDbLine
 10
81.1807140607
 20
73.2384285714
 30
0.0
 11
81.1807140607
 21
66.2384285714
 31
0.0
  0
LINE
  5
94
330
1F
100
AcDbEntity
  8
0
  6
Continuous
 62
     7
370
    25
100
AcDbLine
 10
201.1807140607
 20
73.2384285714
 30
0.0
 11
81.1807140607
 21
73.2384285714
 31
0.0
  0
LINE
  5
95
330
1F
100
AcDbEntity
  8
0
  6
Continuous
 62
     7
370
    25
100
AcDbLine
 10
201.1807140607
 20
73.2384285714
 30
0.0
 11
201.1807140607
 21
66.2384285714
 31
0.0
  0
LINE
  5
96
330
1F
100
AcDbEntity
  8
0
  6
Continuous
 62
     7
370
    25
100
AcDbLine
 10
201.1807140607
 20
66.2384285714
 30
0.0
 11
81.1807140607
 21
66.2384285714
 31
0.0
  0
SPLINE
  5
97
330
1F
100
AcDbEntity
  8
0
  6
Continuous
 62
     7
370
    25
100
AcDbSpline
210
0.0
220
0.0
230
1.0
 70
     8
 71
     3
 72
    26
 73
    22
 74
     0
 42
0.00000001
 43
0.00000001
 40
0.0
 40
0.0
 40
0.0
 40
0.0
 40
0.0523309501170167
 40
0.1061946159632454
 40
0.1585213438869614
 40
0.2123371379299576
 40
0.265189811902258
 40
0.3195518370748441
 40
0.3727683274902219
 40
0.427560305937727
 40
0.4801890939776277
 40
0.5343826430908891
 40
0.5863864300569764
 40
0.6398832158648783
 40
0.6921987817663385
 40
0.7459882486421946
 40
0.7990616489096312
 40
0.8536691451274794
 40
0.9067764102788057
 40
0.9614660694234276
 40
1.0
 40
1.0
 40
1.0
 40
1.0
 10
184.1807140607425
 20
113.7384285714285
 30
0.0
 10
184.1990732559761
 20
113.7350689308608
 30
0.0
 10
184.2363293669938
 20
113.7282512495639
 30
0.0
 10
184.5357883865366
 20
113.6748303954557
 30
0.0
 10
185.008735328121
 20
113.5952321603862
 30
0.0
 10
185.6524975015624
 20
113.495963866934
 30
0.0
 10
186.4579508228126
 20
113.386889610589
 30
0.0
 10
187.3939933689073
 20
113.281288025235
 30
0.0
 10
188.4502610154301
 20
113.1897862311271
 30
0.0
 10
189.575178871917
 20
113.1248594969428
 30
0.0
 10
190.7534683886912
 20
113.092993545145
 30
0.0
 10
191.9244020847248
 20
113.0980110783019
 30
0.0
 10
193.0794697940551
 20
113.1387640242787
 30
0.0
 10
194.1680119870767
 20
113.2095290904925
 30
0.0
 10
195.184193527333
 20
113.303800583167
 30
0.0
 10
196.0867153152946
 20
113.4102410480325
 30
0.0
 10
196.8632063932061
 20
113.5187218811839
 30
0.0
 10
197.4782847000157
 20
113.6157962902914
 30
0.0
 10
197.9127608640696
 20
113.6901109834493
 30
0.0
 10
198.1531933259512
 20
113.7334053338927
 30
0.0
 10
198.1595911465782
 20
113.7345888609565
 30
0.0
 10
198.1622356829732
 20
113.7350780713576
 30
0.0
  0
SPLINE
  5
98
330
1F
100
AcDbEntity
  8
0
  6
Continuous
 62
     7
370
    25
100
AcDbSpline
210
0.0
220
0.0
230
1.0
 70
     8
 71
     3
 72
    18
 73
    14
 74
     0
 42
0.00000001
 43
0.00000001
 40
0.0
 40
0.0
 40
0.0
 40
0.0
 40
0.0993938932951023
 40
0.2018576990956866
 40
0.3012041202022703
 40
0.4031503508012058
 40
0.5080591580398872
 40
0.6157559810906148
 40
0.7248884441137794
 40
0.7812658806838972
 40
0.8376400465063208
 40
0.9410349740289681
 40
1.0
 40
1.0
 40
1.0
 40
1.0
 10
141.1807140607425
 20
110.2562811612147
 30
0.0
 10
140.3381700825875
 20
110.2740717064642
 30
0.0
 10
138.6270590356308
 20
110.3102022815997
 30
0.0
 10
136.1508434250006
 20
110.5908109434647
 30
0.0
 10
133.8011908382869
 20
111.0023181184829
 30
0.0
 10
131.6328514574594
 20
111.5163239901848
 30
0.0
 10
129.6622610814068
 20
112.0880528968906
 30
0.0
 10
127.9592556854018
 20
112.6599323909114
 30
0.0
 10
126.8219810858318
 20
113.083002760087
 30
0.0
 10
126.1112977225264
 20
113.3602077342836
 30
0.0
 10
125.5774322103783
 20
113.5741928938921
 30
0.0
 10
125.2046172225463
 20
113.7284619053429
 30
0.0
 10
125.2288652345486
 20
113.718435647191
 30
0.0
 10
125.2376714988195
 20
113.7147943639829
 30
0.0
  0
SPLINE
  5
99
330
1F
100
AcDbEntity
  8
0
  6
Continuous
 62
     7
370
    25
100
AcDbSpline
210
0.0
220
0.0
230
1.0
 70
     8
 71
     3
 72
    19
 73
    15
 74
     0
 42
0.00000001
 43
0.00000001
 40
0.0
 40
0.0
 40
0.0
 40
0.0
 40
0.0236008146092743
 40
0.1270488055861478
 40
0.2240553204237493
 40
0.323650953459469
 40
0.4251256712722366
 40
0.5291858172274243
 40
0.6373738248701728
 40
0.7487225064253621
 40
0.8558716139721874
 40
0.9113496236331425
 40
0.9668252138829047
 40
1.0
 40
1.0
 40
1.0
 40
1.0
 10
157.1441751685262
 20
113.7232803512034
 30
0.0
 10
157.1552732253174
 20
113.7278809234046
 30
0.0
 10
157.2150167080316
 20
113.7526468991917
 30
0.0
 10
156.9126869156379
 20
113.6268625426677
 30
0.0
 10
156.2404150955282
 20
113.3546849713717
 30
0.0
 10
155.1822603613585
 20
112.9459460565396
 30
0.0
 10
153.7670334994844
 20
112.4395912751122
 30
0.0
 10
151.9893228921779
 20
111.8706824973286
 30
0.0
 10
149.8568159944536
 20
111.2919354949318
 30
0.0
 10
147.4391159027474
 20
110.7818830155724
 30
0.0
 10
145.2394809218436
 20
110.4706572593108
 30
0.0
 10
143.4278797304253
 20
110.3198412477102
 30
0.0
 10
142.2123438618474
 20
110.2636832307469
 30
0.0
 10
141.4616420505425
 20
110.2582968537741
 30
0.0
 10
141.1807140607425
 20
110.2562811612147
 30
0.0
  0
SPLINE
  5
9A
330
1F
100
AcDbEntity
  8
0
  6
Continuous
 62
     7
370
    25
100
AcDbSpline
210
0.0
220
0.0
230
1.0
 70
     8
 71
     3
 72
    26
 73
    22
 74
     0
 42
0.00000001
 43
0.00000001
 40
0.0
 40
0.0
 40
0.0
 40
0.0
 40
0.0138407415035046
 40
0.0677601850102889
 40
0.1197813014892709
 40
0.1732819892851307
 40
0.2258490726147445
 40
0.2799033756030179
 40
0.333101084070013
 40
0.387854152488924
 40
0.4407818536431882
 40
0.4952903841500832
 40
0.5474450815585735
 40
0.6011188074512658
 40
0.6532122312900075
 40
0.7067758393881302
 40
0.7596032856193229
 40
0.8139375638664489
 40
0.8671614756172593
 40
0.9219590431893484
 40
1.0
 40
1.0
 40
1.0
 40
1.0
 10
84.19919243851177
 20
113.7350780713576
 30
0.0
 10
84.19371107176038
 20
113.7360718253011
 30
0.0
 10
84.16687591808824
 20
113.7409369512807
 30
0.0
 10
84.31381627529547
 20
113.7141924100144
 30
0.0
 10
84.64329517231558
 20
113.6562937800916
 30
0.0
 10
85.16332382639425
 20
113.5703945872131
 30
0.0
 10
85.85231461078877
 20
113.4673755942591
 30
0.0
 10
86.68938753656111
 20
113.3586352235279
 30
0.0
 10
87.66531845822726
 20
113.2549756792179
 30
0.0
 10
88.73627881838414
 20
113.1700959206686
 30
0.0
 10
89.88710288091164
 20
113.1128152512645
 30
0.0
 10
91.05779055450158
 20
113.0907757399499
 30
0.0
 10
92.2367241416729
 20
113.105542759175
 30
0.0
 10
93.36841253531871
 20
113.1544783238229
 30
0.0
 10
94.44749274497643
 20
113.2327529250075
 30
0.0
 10
95.43034899051045
 20
113.3307315277725
 30
0.0
 10
96.30707465552898
 20
113.4394094927379
 30
0.0
 10
97.0397560187166
 20
113.5456381901183
 30
0.0
 10
97.61000845442717
 20
113.6377396797226
 30
0.0
 10
98.07242281728165
 20
113.7184294671299
 30
0.0
 10
98.14063831602766
 20
113.7310274282448
 30
0.0
 10
98.18071406074249
 20
113.7384285714285
 30
0.0
  0
LINE
  5
9B
330
1F
100
AcDbEntity
  8
0
  6
Continuous
 62
     7
370
    25
100
AcDbLine
 10
111.1807140607
 20
65.2384285714
 30
0.0
 11
171.1807140607
 21
65.2384285714
 31
0.0
  0
LINE
  5
9C
330
1F
100
AcDbEntity
  8
0
  6
Continuous
 62
     7
370
    25
100
AcDbLine
 10
111.1807140607
 20
36.7384285714
 30
0.0
 11
111.1807140607
 21
65.2384285714
 31
0.0
  0
LINE
  5
9D
330
1F
100
AcDbEntity
  8
0
  6
Continuous
 62
     7
370
    25
100
AcDbLine
 10
171.1807140607
 20
65.2384285714
 30
0.0
 11
171.1807140607
 21
36.7384285714
 31
0.0
  0
LINE
  5
9E
330
1F
100
AcDbEntity
  8
0
  6
Continuous
 62
     7
370
    25
100
AcDbLine
 10
81.1807140607
 20
66.2384285714
 30
0.0
 11
81.1807140607
 21
36.7384285714
 31
0.0
  0
LINE
  5
9F
330
1F
100
AcDbEntity
  8
0
  6
Continuous
 62
     7
370
    25
100
AcDbLine
 10
81.1807140607
 20
113.7384285714
 30
0.0
 11
81.1807140607
 21
84.2384285714
 31
0.0
  0
LINE
  5
A0
330
1F
100
AcDbEntity
  8
0
  6
Continuous
 62
     7
370
    25
100
AcDbLine
 10
201.1807140607
 20
66.2384285714
 30
0.0
 11
201.1807140607
 21
36.7384285714
 31
0.0
  0
LINE
  5
A1
330
1F
100
AcDbEntity
  8
0
  6
Continuous
 62
     7
370
    25
100
AcDbLine
 10
201.1807140607
 20
113.7384285714
 30
0.0
 11
201.1807140607
 21
84.2384285714
 31
0.0
  0
LINE
  5
A2
330
1F
100
AcDbEntity
  8
0
  6
Continuous
 62
     7
370
    25
100
AcDbLine
 10
81.1807140607
 20
77.2384285714
 30
0.0
 11
81.1807140607
 21
73.2384285714
 31
0.0
  0
LINE
  5
A3
330
1F
100
AcDbEntity
  8
0
  6
Continuous
 62
     7
370
    25
100
AcDbLine
 10
201.1807140607
 20
77.2384285714
 30
0.0
 11
201.1807140607
 21
73.2384285714
 31
0.0
  0
LINE
  5
A4
330
1F
100
AcDbEntity
  8
0
  6
Continuous
 62
     7
370
    25
100
AcDbLine
 10
141.1807140607
 20
161.7384285714
 30
0.0
 11
157.1807140607
 21
161.7384285714
 31
0.0
  0
LINE
  5
A5
330
1F
100
AcDbEntity
  8
0
  6
Continuous
 62
     7
370
    25
100
AcDbLine
 10
125.1807140607
 20
161.7384285714
 30
0.0
 11
141.1807140607
 21
161.7384285714
 31
0.0
  0
LINE
  5
A6
330
1F
100
AcDbEntity
  8
0
  6
Continuous
 62
     7
370
    25
100
AcDbLine
 10
98.1807140607
 20
128.7384285714
 30
0.0
 11
84.1807140607
 21
128.7384285714
 31
0.0
  0
LINE
  5
A7
330
1F
100
AcDbEntity
  8
0
  6
Continuous
 62
     7
370
    25
100
AcDbLine
 10
184.1807140607
 20
128.7384285714
 30
0.0
 11
198.1807140607
 21
128.7384285714
 31
0.0
  0
LINE
  5
A8
330
1F
100
AcDbEntity
  8
0
  6
Continuous
 62
     7
370
    25
100
AcDbLine
 10
300.6818497415
 20
113.0981994847
 30
0.0
 11
300.6818497415
 21
128.7384285714
 31
0.0
  0
LINE
  5
A9
330
1F
100
AcDbEntity
  8
0
  6
Continuous
 62
     7
370
    25
100
AcDbLine
 10
286.6818497415
 20
128.7384285714
 30
0.0
 11
286.6818497415
 21
113.1010711859
 31
0.0
  0
LINE
  5
AA
330
1F
100
AcDbEntity
  8
0
  6
Continuous
 62
     7
370
    25
100
AcDbLine
 10
277.6818497415
 20
161.7384285714
 30
0.0
 11
277.6818497415
 21
110.2695025449
 31
0.0
  0
LINE
  5
AB
330
1F
100
AcDbEntity
  8
0
  6
Continuous
 62
     7
370
    25
100
AcDbLine
 10
309.6818497415
 20
110.2562811612
 30
0.0
 11
309.6818497415
 21
161.7384285714
 31
0.0
  0
LINE
  5
AC
330
1F
100
AcDbEntity
  8
0
  6
Continuous
 62
     7
370
    25
100
AcDbLine
 10
331.11512371
 20
84.2384285714
 30
0.0
 11
346.11512371
 21
84.2384285714
 31
0.0
  0
LINE
  5
AD
330
1F
100
AcDbEntity
  8
0
  6
Continuous
 62
     7
370
    25
100
AcDbLine
 10
346.11512371
 20
84.2384285714
 30
0.0
 11
346.11512371
 21
77.2384285714
 31
0.0
  0
LINE
  5
AE
330
1F
100
AcDbEntity
  8
0
  6
Continuous
 62
     7
370
    25
100
AcDbLine
 10
346.11512371
 20
77.2384285714
 30
0.0
 11
325.1182935608
 21
77.2384285714
 31
0.0
  0
ARC
  5
AF
330
1F
100
AcDbEntity
  8
0
  6
Continuous
 62
     7
370
    25
100
AcDbCircle
 10
293.6818497415
 20
75.2384285714
 30
0.0
 40
31.49999999999998
100
AcDbArc
 50
3.6402758756
 51
356.3597241244
  0
LINE
  5
B0
330
1F
100
AcDbEntity
  8
0
  6
Continuous
 62
     7
370
    25
100
AcDbLine
 10
325.1182935608
 20
73.2384285714
 30
0.0
 11
346.11512371
 21
73.2384285714
 31
0.0
  0
LINE
  5
B1
330
1F
100
AcDbEntity
  8
0
  6
Continuous
 62
     7
370
    25
100
AcDbLine
 10
346.11512371
 20
73.2384285714
 30
0.0
 11
346.11512371
 21
66.2384285714
 31
0.0
  0
LINE
  5
B2
330
1F
100
AcDbEntity
  8
0
  6
Continuous
 62
     7
370
    25
100
AcDbLine
 10
346.11512371
 20
66.2384285714
 30
0.0
 11
331.11512371
 21
66.2384285714
 31
0.0
  0
ARC
  5
B3
330
1F
100
AcDbEntity
  8
0
  6
Continuous
 62
     7
370
    25
100
AcDbCircle
 10
293.6818497415
 20
75.2384285714
 30
0.0
 40
38.49999999999999
100
AcDbArc
 50
13.5189076399
 51
346.4810923601
  0
LINE
  5
B4
330
1F
100
AcDbEntity
  8
0
  6
Continuous
 62
     7
370
    25
100
AcDbLine
 10
300.6818497415
 20
128.7384285714
 30
0.0
 11
286.6818497415
 21
128.7384285714
 31
0.0
  0
LINE
  5
B5
330
1F
100
AcDbEntity
  8
0
  6
Continuous
 62
     7
370
    25
100
AcDbLine
 10
277.6818497415
 20
161.7384285714
 30
0.0
 11
309.6818497415
 21
161.7384285714
 31
0.0
  0
LINE
  5
B6
330
1F
100
AcDbEntity
  8
0
  6
Continuous
 62
     7
370
    25
100
AcDbLine
 10
81.1807140607
 20
205.7351094598
 30
0.0
 11
201.1807140607
 21
205.7351094598
 31
0.0
  0
LINE
  5
B7
330
1F
100
AcDbEntity
  8
0
  6
Continuous
 62
     7
370
    25
100
AcDbLine
 10
201.1807140607
 20
281.6683834283
 30
0.0
 11
81.1807140607
 21
281.6683834283
 31
0.0
  0
LINE
  5
B8
330
1F
100
AcDbEntity
  8
0
  6
Continuous
 62
     7
370
    25
100
AcDbLine
 10
201.1807140607
 20
281.6683834283
 30
0.0
 11
201.1807140607
 21
205.7351094598
 31
0.0
  0
LINE
  5
B9
330
1F
100
AcDbEntity
  8
0
  6
Continuous
 62
     7
370
    25
100
AcDbLine
 10
81.1807140607
 20
281.6683834283
 30
0.0
 11
81.1807140607
 21
205.7351094598
 31
0.0
  0
LINE
  5
BA
330
1F
100
AcDbEntity
  8
0
  6
Continuous
 62
     7
370
    25
100
AcDbLine
 10
111.1807140607
 20
281.4137323498
 30
0.0
 11
171.1807140607
 21
281.4137323498
 31
0.0
  0
LINE
  5
BB
330
1F
100
AcDbEntity
  8
0
  6
Continuous
 62
     7
370
    25
100
AcDbLine
 10
111.1807140607
 20
207.0564865697
 30
0.0
 11
111.1807140607
 21
281.4137323498
 31
0.0
  0
LINE
  5
BC
330
1F
100
AcDbEntity
  8
0
  6
Continuous
 62
     7
370
    25
100
AcDbLine
 10
171.1807140607
 20
207.0564865697
 30
0.0
 11
111.1807140607
 21
207.0564865697
 31
0.0
  0
LINE
  5
BD
330
1F
100
AcDbEntity
  8
0
  6
Continuous
 62
     7
370
    25
100
AcDbLine
 10
171.1807140607
 20
281.4137323498
 30
0.0
 11
171.1807140607
 21
207.0564865697
 31
0.0
  0
SPLINE
  5
BE
330
1F
100
AcDbEntity
  8
0
  6
Continuous
 62
     7
370
    25
100
AcDbSpline
210
0.0
220
0.0
230
1.0
 70
    11
 71
     3
 72
   102
 73
    98
 74
     0
 42
0.00000001
 43
0.00000001
 40
0.0
 40
0.0
 40
0.0
 40
0.0
 40
0.0312499999999999
 40
0.0312499999999999
 40
0.0468749999999999
 40
0.0468749999999999
 40
0.0624999999999999
 40
0.0624999999999999
 40
0.0937499999999998
 40
0.0937499999999998
 40
0.1093749999999998
 40
0.1093749999999998
 40
0.1249999999999997
 40
0.1249999999999997
 40
0.1406249999999997
 40
0.1406249999999997
 40
0.1562499999999996
 40
0.1562499999999996
 40
0.1874999999999996
 40
0.1874999999999996
 40
0.2031249999999995
 40
0.2031249999999995
 40
0.2187499999999995
 40
0.2187499999999995
 40
0.2499999999999994
 40
0.2499999999999994
 40
0.2656249999999994
 40
0.2656249999999994
 40
0.2812499999999994
 40
0.2812499999999994
 40
0.3124999999999993
 40
0.3124999999999993
 40
0.3437499999999993
 40
0.3437499999999993
 40
0.3593749999999993
 40
0.3593749999999993
 40
0.3749999999999992
 40
0.3749999999999992
 40
0.4062499999999992
 40
0.4062499999999992
 40
0.4218749999999992
 40
0.4218749999999992
 40
0.4374999999999991
 40
0.4374999999999991
 40
0.4687499999999991
 40
0.4687499999999991
 40
0.4843749999999991
 40
0.4843749999999991
 40
0.4999999999999991
 40
0.4999999999999991
 40
0.5156249999999991
 40
0.5156249999999991
 40
0.5312499999999991
 40
0.5312499999999991
 40
0.562499999999999
 40
0.562499999999999
 40
0.578124999999999
 40
0.578124999999999
 40
0.5937499999999989
 40
0.5937499999999989
 40
0.6093749999999989
 40
0.6093749999999989
 40
0.6249999999999989
 40
0.6249999999999989
 40
0.6562499999999989
 40
0.6562499999999989
 40
0.6718749999999988
 40
0.6718749999999988
 40
0.6874999999999988
 40
0.6874999999999988
 40
0.7187499999999989
 40
0.7187499999999989
 40
0.734374999999999
 40
0.734374999999999
 40
0.7499999999999991
 40
0.7499999999999991
 40
0.7812499999999992
 40
0.7812499999999992
 40
0.8124999999999994
 40
0.8124999999999994
 40
0.8281249999999996
 40
0.8281249999999996
 40
0.8437499999999996
 40
0.8437499999999996
 40
0.8749999999999997
 40
0.8749999999999997
 40
0.8906249999999998
 40
0.8906249999999998
 40
0.9062499999999998
 40
0.9062499999999998
 40
0.9374999999999999
 40
0.9374999999999999
 40
0.9687499999999999
 40
0.9687499999999999
 40
0.984375
 40
0.984375
 40
1.0
 40
1.0
 40
1.0
 40
1.0
 10
141.1807140607425
 20
231.2351094597877
 30
0.0
 10
142.0499739451598
 20
231.2351094597877
 30
0.0
 10
142.9025033063338
 20
231.3213950742415
 30
0.0
 10
144.1578103785966
 20
231.5733938622218
 30
0.0
 10
144.5723058048177
 20
231.6779834841273
 30
0.0
 10
145.3933825392957
 20
231.929105574818
 30
0.0
 10
145.7982218894021
 20
232.0753744731553
 30
0.0
 10
146.9744547512294
 20
232.566574728175
 30
0.0
 10
147.7167334339972
 20
232.9658735811614
 30
0.0
 10
148.7704568133687
 20
233.6722210488048
 30
0.0
 10
149.1125738929982
 20
233.9267017826365
 30
0.0
 10
149.7636856302473
 20
234.4621739604623
 30
0.0
 10
150.0743486918647
 20
234.7441301640148
 30
0.0
 10
150.6668361991106
 20
235.336294273447
 30
0.0
 10
150.9486591237653
 20
235.6465021733936
 30
0.0
 10
151.4834299258378
 20
236.2959047340456
 30
0.0
 10
151.737250393925
 20
236.6364136564129
 30
0.0
 10
152.447922429022
 20
237.6950357102121
 30
0.0
 10
152.8472738370439
 20
238.4379337058545
 30
0.0
 10
153.3370240343717
 20
239.6087616822157
 30
0.0
 10
153.4819178776006
 20
240.0085163901182
 30
0.0
 10
153.733601155953
 20
240.8279508348689
 30
0.0
 10
153.8403561494012
 20
241.2488704362274
 30
0.0
 10
154.0944274808969
 20
242.5109717108776
 30
0.0
 10
154.1797317998491
 20
243.3612092343996
 30
0.0
 10
154.1811926629924
 20
244.6499552851593
 30
0.0
 10
154.1601684321544
 20
245.0842023426899
 30
0.0
 10
154.0749909317383
 20
245.9453195280134
 30
0.0
 10
154.0113303649603
 20
246.370066979933
 30
0.0
 10
153.7593543824375
 20
247.6275777489492
 30
0.0
 10
153.5100194954991
 20
248.4452617038365
 30
0.0
 10
152.849230532609
 20
250.0301830371782
 30
0.0
 10
152.4477854478158
 20
250.7744658089128
 30
0.0
 10
151.7439093663988
 20
251.8243402976343
 30
0.0
 10
151.4921887107838
 20
252.1631156691206
 30
0.0
 10
150.9536489296424
 20
252.8182054025059
 30
0.0
 10
150.6686736117798
 20
253.1320290662166
 30
0.0
 10
149.7771732359167
 20
254.0232200717028
 30
0.0
 10
149.1306931286015
 20
254.5555281637293
 30
0.0
 10
148.0791394562295
 20
255.2618963632295
 30
0.0
 10
147.7127957211938
 20
255.4828606608954
 30
0.0
 10
146.9655251574846
 20
255.8848287042946
 30
0.0
 10
146.5838611548983
 20
256.0666111950623
 30
0.0
 10
145.4146505948901
 20
256.5553167939346
 30
0.0
 10
144.6031396913349
 20
256.806241057166
 30
0.0
 10
143.3329577864189
 20
257.062986667423
 30
0.0
 10
142.9049807002585
 20
257.1273880580853
 30
0.0
 10
142.0514926210005
 20
257.2130017231432
 30
0.0
 10
141.6241967140351
 20
257.2345854150366
 30
0.0
 10
140.768505858617
 20
257.235614695084
 30
0.0
 10
140.3401109421915
 20
257.2150617177345
 30
0.0
 10
139.4822007715376
 20
257.1308772472399
 30
0.0
 10
139.0511769075952
 20
257.0666995281413
 30
0.0
 10
137.7871713490447
 20
256.8137578982929
 30
0.0
 10
136.9733587913173
 20
256.5649060927678
 30
0.0
 10
135.7935630266922
 20
256.0740297897748
 30
0.0
 10
135.4054526439921
 20
255.8895805650492
 30
0.0
 10
134.6571526372242
 20
255.4878196901617
 30
0.0
 10
134.2956592960257
 20
255.2701844721093
 30
0.0
 10
133.5968371500455
 20
254.8021180546603
 30
0.0
 10
133.2595106518817
 20
254.551685159023
 30
0.0
 10
132.6086890461534
 20
254.017623694475
 30
0.0
 10
132.2938740843193
 20
253.7326430630216
 30
0.0
 10
131.3956060429651
 20
252.8355709779196
 30
0.0
 10
130.8626619805618
 20
252.1878027774003
 30
0.0
 10
130.1585527871432
 20
251.1408203784475
 30
0.0
 10
129.9398669726365
 20
250.7791767641615
 30
0.0
 10
129.5355709515837
 20
250.0292532368755
 30
0.0
 10
129.3505426089503
 20
249.6413978023561
 30
0.0
 10
128.8584105201513
 20
248.4641136381595
 30
0.0
 10
128.6087289880479
 20
247.6525149115568
 30
0.0
 10
128.3539759994487
 20
246.3933860591641
 30
0.0
 10
128.2889598461251
 20
245.9642964963099
 30
0.0
 10
128.2024810897624
 20
245.1027980492872
 30
0.0
 10
128.1810254704717
 20
244.6731092843769
 30
0.0
 10
128.1801013120855
 20
243.3871369832975
 30
0.0
 10
128.2634524436724
 20
242.5339207919015
 30
0.0
 10
128.6031590031732
 20
240.835874348562
 30
0.0
 10
128.8544197087398
 20
240.0180120748437
 30
0.0
 10
129.3445540397234
 20
238.8419956413698
 30
0.0
 10
129.5270530607372
 20
238.4580665032591
 30
0.0
 10
129.9309301547809
 20
237.7063728213723
 30
0.0
 10
130.1515117168689
 20
237.3405383367968
 30
0.0
 10
130.8577465522359
 20
236.2884118396019
 30
0.0
 10
131.3909846999351
 20
235.6401536648657
 30
0.0
 10
132.2859439315401
 20
234.7450577809359
 30
0.0
 10
132.6016231471287
 20
234.4587537321383
 30
0.0
 10
133.253442478942
 20
233.9231602024469
 30
0.0
 10
133.5906846851606
 20
233.6725505393916
 30
0.0
 10
134.6365001815947
 20
232.9710936492471
 30
0.0
 10
135.3787552427252
 20
232.5700269363014
 30
0.0
 10
136.9629790278209
 20
231.9084072407114
 30
0.0
 10
137.7769541917534
 20
231.6597240430996
 30
0.0
 10
139.0297565398458
 20
231.4072157648237
 30
0.0
 10
139.452763880125
 20
231.3432600999579
 30
0.0
 10
140.3100568601909
 20
231.2571455292488
 30
0.0
 10
140.7460841185338
 20
231.2351094597877
 30
0.0
 10
141.1807140607425
 20
231.2351094597877
 30
0.0
  0
LINE
  5
BF
330
1F
100
AcDbEntity
  8
0
  6
Continuous
 62
     7
370
    25
100
AcDbLine
 10
171.1807140607
 20
274.1056635223
 30
0.0
 11
111.1807140607
 21
274.1056635223
 31
0.0
  0
LINE
  5
C0
330
1F
100
AcDbEntity
  8
0
  6
Continuous
 62
     7
370
    25
100
AcDbLine
 10
111.1807140607
 20
214.3645553973
 30
0.0
 11
171.1807140607
 21
214.3645553973
 31
0.0
  0
LINE
  5
C1
330
1F
100
AcDbEntity
  8
0
  6
Continuous
 62
     7
370
    25
100
AcDbLine
 10
201.1807140607
 20
296.6683834283
 30
0.0
 11
81.1807140607
 21
296.6683834283
 31
0.0
  0
LINE
  5
C2
330
1F
100
AcDbEntity
  8
0
  6
Continuous
 62
     7
370
    25
100
AcDbLine
 10
81.1807140607
 20
296.6683834283
 30
0.0
 11
81.1807140607
 21
281.6683834283
 31
0.0
  0
LINE
  5
C3
330
1F
100
AcDbEntity
  8
0
  6
Continuous
 62
     7
370
    25
100
AcDbLine
 10
201.1807140607
 20
296.6683834283
 30
0.0
 11
201.1807140607
 21
281.6683834283
 31
0.0
  0
INSERT
  5
CF
330
1F
100
AcDbEntity
  8
FORMAT
100
AcDbBlockReference
  2
SW_CENTERMARKSYMBOL_0
 10
141.1807140607
 20
244.2351094598
 30
0.0
  0
LINE
  5
D0
330
1F
100
AcDbEntity
  8
0
  6
Continuous
 62
     7
370
    25
100
AcDbLine
 10
8.3879141858
 20
113.0981994847
 30
0.0
 11
8.3879141858
 21
128.7384285714
 31
0.0
  0
LINE
  5
D1
330
1F
100
AcDbEntity
  8
0
  6
Continuous
 62
     7
370
    25
100
AcDbLine
 10
-5.6120858142
 20
128.7384285714
 30
0.0
 11
-5.6120858142
 21
113.1010711859
 31
0.0
  0
LINE
  5
D2
330
1F
100
AcDbEntity
  8
0
  6
Continuous
 62
     7
370
    25
100
AcDbLine
 10
-14.6120858142
 20
161.7384285714
 30
0.0
 11
-14.6120858142
 21
110.2562811612
 31
0.0
  0
LINE
  5
D3
330
1F
100
AcDbEntity
  8
0
  6
Continuous
 62
     7
370
    25
100
AcDbLine
 10
17.3879141858
 20
110.2695025449
 30
0.0
 11
17.3879141858
 21
161.7384285714
 31
0.0
  0
LINE
  5
D4
330
1F
100
AcDbEntity
  8
0
  6
Continuous
 62
     7
370
    25
100
AcDbLine
 10
-51.0453597827
 20
66.2384285714
 30
0.0
 11
-36.0453597827
 21
66.2384285714
 31
0.0
  0
LINE
  5
D5
330
1F
100
AcDbEntity
  8
0
  6
Continuous
 62
     7
370
    25
100
AcDbLine
 10
-51.0453597827
 20
73.2384285714
 30
0.0
 11
-51.0453597827
 21
66.2384285714
 31
0.0
  0
LINE
  5
D6
330
1F
100
AcDbEntity
  8
0
  6
Continuous
 62
     7
370
    25
100
AcDbLine
 10
-30.0485296334
 20
73.2384285714
 30
0.0
 11
-51.0453597827
 21
73.2384285714
 31
0.0
  0
ARC
  5
D7
330
1F
100
AcDbEntity
  8
0
  6
Continuous
 62
     7
370
    25
100
AcDbCircle
 10
1.3879141858
 20
75.2384285714
 30
0.0
 40
31.5
100
AcDbArc
 50
183.6402758756
 51
176.3597241244
  0
LINE
  5
D8
330
1F
100
AcDbEntity
  8
0
  6
Continuous
 62
     7
370
    25
100
AcDbLine
 10
-51.0453597827
 20
77.2384285714
 30
0.0
 11
-30.0485296334
 21
77.2384285714
 31
0.0
  0
LINE
  5
D9
330
1F
100
AcDbEntity
  8
0
  6
Continuous
 62
     7
370
    25
100
AcDbLine
 10
-51.0453597827
 20
84.2384285714
 30
0.0
 11
-51.0453597827
 21
77.2384285714
 31
0.0
  0
LINE
  5
DA
330
1F
100
AcDbEntity
  8
0
  6
Continuous
 62
     7
370
    25
100
AcDbLine
 10
-36.0453597827
 20
84.2384285714
 30
0.0
 11
-51.0453597827
 21
84.2384285714
 31
0.0
  0
ARC
  5
DB
330
1F
100
AcDbEntity
  8
0
  6
Continuous
 62
     7
370
    25
100
AcDbCircle
 10
1.3879141858
 20
75.2384285714
 30
0.0
 40
38.5
100
AcDbArc
 50
193.5189076399
 51
166.4810923601
  0
LINE
  5
DC
330
1F
100
AcDbEntity
  8
0
  6
Continuous
 62
     7
370
    25
100
AcDbLine
 10
-5.6120858142
 20
128.7384285714
 30
0.0
 11
8.3879141858
 21
128.7384285714
 31
0.0
  0
LINE
  5
DD
330
1F
100
AcDbEntity
  8
0
  6
Continuous
 62
     7
370
    25
100
AcDbLine
 10
-14.6120858142
 20
161.7384285714
 30
0.0
 11
17.3879141858
 21
161.7384285714
 31
0.0
  0
LINE
  5
DE
330
1F
100
AcDbEntity
  8
0
  6
Continuous
 62
     7
370
    25
100
AcDbLine
 10
201.1807140607
 20
-37.5096941061
 30
0.0
 11
81.1807140607
 21
-37.5096941061
 31
0.0
  0
CIRCLE
  5
DF
330
1F
100
AcDbEntity
  8
0
  6
Continuous
 62
     7
370
    25
100
AcDbCircle
 10
141.1807140607
 20
-76.0096941061
 30
0.0
 40
13.0
  0
CIRCLE
  5
E0
330
1F
100
AcDbEntity
  8
0
  6
Continuous
 62
     7
370
    25
100
AcDbCircle
 10
141.1807140607
 20
-76.0096941061
 30
0.0
 40
16.0
  0
CIRCLE
  5
E1
330
1F
100
AcDbEntity
  8
0
  6
Continuous
 62
     7
370
    25
100
AcDbCircle
 10
91.1807140607
 20
-76.0096941061
 30
0.0
 40
4.600000000000009
  0
CIRCLE
  5
E2
330
1F
100
AcDbEntity
  8
0
  6
Continuous
 62
     7
370
    25
100
AcDbCircle
 10
91.1807140607
 20
-76.0096941061
 30
0.0
 40
7.000000000000014
  0
CIRCLE
  5
E3
330
1F
100
AcDbEntity
  8
0
  6
Continuous
 62
     7
370
    25
100
AcDbCircle
 10
191.1807140607
 20
-76.0096941061
 30
0.0
 40
4.600000000000023
  0
CIRCLE
  5
E4
330
1F
100
AcDbEntity
  8
0
  6
Continuous
 62
     7
370
    25
100
AcDbCircle
 10
191.1807140607
 20
-76.0096941061
 30
0.0
 40
7.0
  0
CIRCLE
  5
E5
330
1F
100
AcDbEntity
  8
0
  6
Continuous
 62
     7
370
    25
100
AcDbCircle
 10
91.1807140607
 20
-76.0096941061
 30
0.0
 40
1.500000000000014
  0
CIRCLE
  5
E6
330
1F
100
AcDbEntity
  8
0
  6
Continuous
 62
     7
370
    25
100
AcDbCircle
 10
91.1807140607
 20
-76.0096941061
 30
0.0
 40
2.000000000000014
  0
CIRCLE
  5
E7
330
1F
100
AcDbEntity
  8
0
  6
Continuous
 62
     7
370
    25
100
AcDbCircle
 10
191.1807140607
 20
-76.0096941061
 30
0.0
 40
1.500000000000028
  0
CIRCLE
  5
E8
330
1F
100
AcDbEntity
  8
0
  6
Continuous
 62
     7
370
    25
100
AcDbCircle
 10
191.1807140607
 20
-76.0096941061
 30
0.0
 40
2.000000000000028
  0
LINE
  5
E9
330
1F
100
AcDbEntity
  8
0
  6
Continuous
 62
     7
370
    25
100
AcDbLine
 10
201.1807140607
 20
-37.5096941061
 30
0.0
 11
201.1807140607
 21
-113.4429680746
 31
0.0
  0
LINE
  5
EA
330
1F
100
AcDbEntity
  8
0
  6
Continuous
 62
     7
370
    25
100
AcDbLine
 10
201.1807140607
 20
-113.4429680746
 30
0.0
 11
81.1807140607
 21
-113.4429680746
 31
0.0
  0
LINE
  5
EB
330
1F
100
AcDbEntity
  8
0
  6
Continuous
 62
     7
370
    25
100
AcDbLine
 10
81.1807140607
 20
-37.5096941061
 30
0.0
 11
81.1807140607
 21
-113.4429680746
 31
0.0
  0
LINE
  5
EC
330
1F
100
AcDbEntity
  8
0
  6
Continuous
 62
     7
370
    25
100
AcDbLine
 10
201.1807140607
 20
-128.4429680746
 30
0.0
 11
81.1807140607
 21
-128.4429680746
 31
0.0
  0
LINE
  5
ED
330
1F
100
AcDbEntity
  8
0
  6
Continuous
 62
     7
370
    25
100
AcDbLine
 10
81.1807140607
 20
-113.4429680746
 30
0.0
 11
81.1807140607
 21
-128.4429680746
 31
0.0
  0
LINE
  5
EE
330
1F
100
AcDbEntity
  8
0
  6
Continuous
 62
     7
370
    25
100
AcDbLine
 10
201.1807140607
 20
-113.4429680746
 30
0.0
 11
201.1807140607
 21
-128.4429680746
 31
0.0
  0
INSERT
  5
FA
330
1F
100
AcDbEntity
  8
FORMAT
100
AcDbBlockReference
  2
SW_CENTERMARKSYMBOL_1
 10
141.1807140607
 20
-76.0096941061
 30
0.0
  0
INSERT
  5
106
330
1F
100
AcDbEntity
  8
FORMAT
100
AcDbBlockReference
  2
SW_CENTERMARKSYMBOL_2
 10
91.1807140607
 20
-76.0096941061
 30
0.0
  0
INSERT
  5
112
330
1F
100
AcDbEntity
  8
FORMAT
100
AcDbBlockReference
  2
SW_CENTERMARKSYMBOL_3
 10
191.1807140607
 20
-76.0096941061
 30
0.0
  0
LINE
  5
113
330
1F
100
AcDbEntity
  8
0
  6
Continuous
 62
     7
370
    25
100
AcDbLine
 10
366.1372606668
 20
-86.7471472565
 30
0.0
 11
387.3504641024
 21
-74.5010255792
 31
0.0
  0
LINE
  5
114
330
1F
100
AcDbEntity
  8
0
  6
Continuous
 62
     7
370
    25
100
AcDbLine
 10
302.49765036
 20
-123.4855122886
 30
0.0
 11
323.7108537956
 21
-111.2393906112
 31
0.0
  0
LINE
  5
115
330
1F
100
AcDbEntity
  8
0
  6
Continuous
 62
     7
370
    25
100
AcDbLine
 10
348.8535928959
 20
-7.8152631759
 30
0.0
 11
335.9638948888
 21
-15.2563274479
 31
0.0
  0
LINE
  5
116
330
1F
100
AcDbEntity
  8
0
  6
Continuous
 62
     7
370
    25
100
AcDbLine
 10
368.0309606873
 20
-9.6804036638
 30
0.0
 11
368.0309606873
 21
-1.5552515008
 31
0.0
  0
LINE
  5
117
330
1F
100
AcDbEntity
  8
0
  6
Continuous
 62
     7
370
    25
100
AcDbLine
 10
354.0309606873
 20
-1.5552515008
 30
0.0
 11
354.0309606873
 21
-6.1231619525
 31
0.0
  0
LINE
  5
118
330
1F
100
AcDbEntity
  8
0
  6
Continuous
 62
     7
370
    25
100
AcDbLine
 10
309.675621628
 20
4.9803924959
 30
0.0
 11
309.675621628
 21
-24.7311736213
 31
0.0
  0
LINE
  5
119
330
1F
100
AcDbEntity
  8
0
  6
Continuous
 62
     7
370
    25
100
AcDbLine
 10
341.675621628
 20
-11.9590177866
 30
0.0
 11
341.675621628
 21
4.9803924959
 31
0.0
  0
LINE
  5
11A
330
1F
100
AcDbEntity
  8
0
  6
Continuous
 62
     7
370
    25
100
AcDbLine
 10
331.0261049163
 20
-27.1035365859
 30
0.0
 11
341.6327066341
 21
-33.2265974245
 31
0.0
  0
LINE
  5
11B
330
1F
100
AcDbEntity
  8
0
  6
Continuous
 62
     7
370
    25
100
AcDbLine
 10
331.0261049163
 20
-21.3877509027
 30
0.0
 11
331.0261049163
 21
-27.1035365859
 31
0.0
  0
LINE
  5
11C
330
1F
100
AcDbEntity
  8
0
  6
Continuous
 62
     7
370
    25
100
AcDbLine
 10
345.8731058982
 20
-29.9587421309
 30
0.0
 11
331.0261049163
 21
-21.3877509027
 31
0.0
  0
LWPOLYLINE
  5
11D
330
1F
100
AcDbEntity
  8
0
  6
Continuous
 62
     7
370
    25
100
AcDbPolyline
 90
       95
 70
   128
 43
0.0
 10
345.8731058982
 20
-26.6925788833
 10
346.013310476
 20
-25.0971324651
 10
346.2482201004
 20
-23.570547394
 10
346.5768275998
 20
-22.1193688807
 10
346.9977240745
 20
-20.7498188311
 10
347.5091049372
 20
-19.4677691706
 10
348.1087776503
 20
-18.2787166678
 10
348.7941711258
 20
-17.1877593675
 10
349.5623467496
 20
-16.1995747326
 10
350.4100109803
 20
-15.3183995899
 10
351.3335294702
 20
-14.5480119646
 10
352.3289426477
 20
-13.8917148821
 10
353.3919826936
 20
-13.3523222063
 10
354.5180918399
 20
-12.9321465751
 10
355.7024419104
 20
-12.6329894852
 10
356.9399550221
 20
-12.4561335682
 10
358.225325356
 20
-12.4023370912
 10
359.5530419063
 20
-12.4718307057
 10
360.917412108
 20
-12.664316459
 10
362.3125862446
 20
-12.9789690712
 10
363.7325825278
 20
-13.4144394739
 10
365.1713127449
 20
-13.9688605945
 10
366.6226083618
 20
-14.6398553607
 10
368.0802469702
 20
-15.4245468924
 10
369.5379789667
 20
-16.3195708366
 10
370.9895543471
 20
-17.3210897915
 10
372.4287495038
 20
-18.4248097597
 10
373.8493939093
 20
-19.6259985584
 10
375.2453965719
 20
-20.9195061087
 10
376.6107721513
 20
-22.2997865163
 10
377.9396666202
 20
-23.7609218499
 10
379.2263823635
 20
-25.2966475135
 10
380.4654026068
 20
-26.9003791066
 10
381.6514150694
 20
-28.565240654
 10
382.7793347407
 20
-30.2840940868
 10
383.8443256822
 20
-32.0495698468
 10
384.841821761
 20
-33.8540984832
 10
385.7675462279
 20
-35.6899431066
 10
386.617530053
 20
-37.5492325608
 10
387.3881289435
 20
-39.4239951701
 10
388.0760389682
 20
-41.3061929181
 10
388.6783107232
 20
-43.1877559102
 10
389.1923619774
 20
-45.0606169734
 10
389.6159887438
 20
-46.916746244
 10
389.947374729
 20
-48.7481855956
 10
390.1850991206
 20
-50.5470827596
 10
390.3281426788
 20
-52.3057249913
 10
390.3758921066
 20
-54.0165721388
 10
390.3281426788
 20
-55.6722889704
 10
390.1850991206
 20
-57.2657766253
 10
389.947374729
 20
-58.790203049
 10
389.6159887438
 20
-60.2390322862
 10
389.1923619774
 20
-61.6060525032
 10
388.6783107232
 20
-62.8854026215
 10
388.0760389682
 20
-64.0715974466
 10
387.3881289435
 20
-65.159551186
 10
386.617530053
 20
-66.1445992545
 10
385.7675462279
 20
-67.0225182733
 10
384.841821761
 20
-67.7895441777
 10
383.8443256822
 20
-68.4423883558
 10
382.7793347407
 20
-68.9782517478
 10
381.6514150694
 20
-69.3948368477
 10
380.4654026068
 20
-69.690357553
 10
379.2263823635
 20
-69.8635468231
 10
377.9396666202
 20
-69.9136621116
 10
376.6107721513
 20
-69.8404885501
 10
375.2453965719
 20
-69.644339869
 10
373.8493939093
 20
-69.3260570529
 10
372.4287495038
 20
-68.8870047346
 10
370.9895543471
 20
-68.3290653442
 10
369.5379789667
 20
-67.6546310386
 10
368.0802469702
 20
-66.8665934447
 10
366.6226083618
 20
-65.9683312617
 10
365.1713127449
 20
-64.9636957754
 10
363.7325825278
 20
-63.8569943453
 10
362.3125862446
 20
-62.6529719371
 10
360.917412108
 20
-61.3567907788
 10
359.5530419063
 20
-59.9740082276
 10
358.225325356
 20
-58.510552943
 10
356.9399550221
 20
-56.9726994674
 10
355.7024419104
 20
-55.3670413246
 10
354.5180918399
 20
-53.7004627497
 10
353.3919826936
 20
-51.9801091733
 10
352.3289426477
 20
-50.2133565855
 10
351.3335294702
 20
-48.4077799114
 10
350.4100109803
 20
-46.5711205339
 10
349.5623467496
 20
-44.7112531025
 10
348.7941711258
 20
-42.8361517709
 10
348.1087776503
 20
-40.9538560078
 10
347.5091049372
 20
-39.072436128
 10
346.9977240745
 20
-37.199958691
 10
346.5768275998
 20
-35.3444519156
 10
346.2482201004
 20
-33.5138712592
 10
346.013310476
 20
-31.716065309
 10
345.8731058982
 20
-29.9587421309
  0
LINE
  5
11E
330
1F
100
AcDbEntity
  8
0
  6
Continuous
 62
     7
370
    25
100
AcDbLine
 10
331.0261049163
 20
-18.1215876551
 30
0.0
 11
345.8731058982
 21
-26.6925788833
 31
0.0
  0
LINE
  5
11F
330
1F
100
AcDbEntity
  8
0
  6
Continuous
 62
     7
370
    25
100
AcDbLine
 10
331.0261049163
 20
-12.4058019719
 30
0.0
 11
331.0261049163
 21
-18.1215876551
 31
0.0
  0
LINE
  5
120
330
1F
100
AcDbEntity
  8
0
  6
Continuous
 62
     7
370
    25
100
AcDbLine
 10
341.6327066341
 20
-18.5288628106
 30
0.0
 11
331.0261049163
 21
-12.4058019719
 31
0.0
  0
LWPOLYLINE
  5
121
330
1F
100
AcDbEntity
  8
0
  6
Continuous
 62
     7
370
    25
100
AcDbPolyline
 90
       99
 70
   128
 43
0.0
 10
341.6327066341
 20
-33.2265974245
 10
342.0563851195
 20
-35.2697192044
 10
342.5716224349
 20
-37.3335406964
 10
343.1766073549
 20
-39.4108069028
 10
343.8692131627
 20
-41.4942155635
 10
344.6470051256
 20
-43.5764428257
 10
345.5072490542
 20
-45.6501689896
 10
346.446920914
 20
-47.7081042393
 10
347.4627174554
 20
-49.7430142694
 10
348.5510678263
 20
-51.7477457152
 10
349.7081461245
 20
-53.7152512997
 10
350.9298848467
 20
-55.6386146068
 10
352.2119891878
 20
-57.5110743946
 10
353.5499521377
 20
-59.3260483635
 10
354.9390703256
 20
-61.0771562952
 10
356.3744605534
 20
-62.7582424809
 10
357.8510769617
 20
-64.3633973609
 10
359.3637287682
 20
-65.8869782987
 10
360.9070985142
 20
-67.3236294161
 10
362.4757607577
 20
-68.6683004216
 10
364.0642011455
 20
-69.9162643633
 10
365.6668357976
 20
-71.0631342456
 10
367.2780309368
 20
-72.1048784515
 10
368.892122693
 20
-73.0378349142
 10
370.5034370135
 20
-73.8587239912
 10
372.1063096092
 20
-74.5646599929
 10
373.6951058664
 20
-75.1531613266
 10
375.2642406542
 20
-75.6221592206
 10
376.8081979582
 20
-75.9700049962
 10
378.3215502709
 20
-76.1954758632
 10
379.7989776713
 20
-76.297779219
 10
381.2352865259
 20
-76.2765554343
 10
382.6254277462
 20
-76.1318791176
 10
383.964514538
 20
-75.8642588527
 10
385.2478395794
 20
-75.4746354111
 10
386.4708915696
 20
-74.9643784447
 10
387.6293710865
 20
-74.3352816713
 10
388.7192057014
 20
-73.5895565687
 10
389.7365642944
 20
-72.7298246009
 10
390.6778705222
 20
-71.7591080029
 10
391.53981539
 20
-70.6808191564
 10
392.3193688838
 20
-69.4987485941
 10
393.013790622
 20
-68.217051675
 10
393.6206394883
 20
-66.8402339768
 10
394.1377822135
 20
-65.3731354574
 10
394.563400874
 20
-63.8209134409
 10
394.8959992833
 20
-62.1890244879
 10
395.1344082507
 20
-60.4832052139
 10
395.2777896919
 20
-58.7094521234
 10
395.3256395749
 20
-56.8740005301
 10
395.2777896919
 20
-54.9833026379
 10
395.1344082507
 20
-53.0440048592
 10
394.8959992833
 20
-51.0629244505
 10
394.563400874
 20
-49.047025548
 10
394.1377822135
 20
-47.0033946859
 10
393.6206394883
 20
-44.9392158853
 10
393.013790622
 20
-42.8617453999
 10
392.3193688838
 20
-40.7782862079
 10
391.53981539
 20
-38.6961623398
 10
390.6778705222
 20
-36.6226931319
 10
389.7365642944
 20
-34.5651674967
 10
388.7192057014
 20
-32.5308182999
 10
387.6293710865
 20
-30.5267969345
 10
386.4708915696
 20
-28.5601481814
 10
385.2478395794
 20
-26.6377854447
 10
383.964514538
 20
-24.766466449
 10
382.6254277462
 20
-22.9527694836
 10
381.2352865259
 20
-21.2030702777
 10
379.7989776713
 20
-19.523519588
 10
378.3215502709
 20
-17.9200215763
 10
376.8081979582
 20
-16.398213055
 10
375.2642406542
 20
-14.9634436713
 10
373.6951058664
 20
-13.6207571021
 10
372.1063096092
 20
-12.3748733233
 10
370.5034370135
 20
-11.2301720179
 10
368.892122693
 20
-10.1906771798
 10
367.2780309368
 20
-9.2600429685
 10
365.6668357976
 20
-8.4415408631
 10
364.0642011455
 20
-7.7380481622
 10
362.4757607577
 20
-7.1520378693
 10
360.9070985142
 20
-6.6855699996
 10
359.3637287682
 20
-6.3402843379
 10
357.8510769617
 20
-6.1173946746
 10
356.3744605534
 20
-6.0176845387
 10
354.9390703256
 20
-6.0415044433
 10
353.5499521377
 20
-6.188770654
 10
352.2119891878
 20
-6.4589654824
 10
350.9298848467
 20
-6.8511391068
 10
349.7081461245
 20
-7.3639129104
 10
348.5510678263
 20
-7.9954843281
 10
347.4627174554
 20
-8.7436331827
 10
346.446920914
 20
-9.6057294901
 10
345.5072490542
 20
-10.5787427038
 10
344.6470051256
 20
-11.6592523689
 10
343.8692131627
 20
-12.8434601456
 10
343.1766073549
 20
-14.127203162
 10
342.5716224349
 20
-15.5059686477
 10
342.0563851195
 20
-16.9749097978
 10
341.6327066341
 20
-18.5288628106
  0
LINE
  5
122
330
1F
100
AcDbEntity
  8
0
  6
Continuous
 62
     7
370
    25
100
AcDbLine
 10
341.6327066341
 20
-33.2265974245
 30
0.0
 11
256.7798928917
 21
-82.2110841339
 31
0.0
  0
LWPOLYLINE
  5
123
330
1F
100
AcDbEntity
  8
0
  6
Continuous
 62
     7
370
    25
100
AcDbPolyline
 90
       37
 70
   128
 43
0.0
 10
256.7798928917
 20
-82.2110841339
 10
257.2035713771
 20
-84.2542059138
 10
257.7188086925
 20
-86.3180274057
 10
258.3237936125
 20
-88.3952936122
 10
259.0163994203
 20
-90.4787022729
 10
259.7941913832
 20
-92.5609295351
 10
260.6544353118
 20
-94.6346556989
 10
261.5941071716
 20
-96.6925909487
 10
262.609903713
 20
-98.7275009787
 10
263.6982540839
 20
-100.7322324246
 10
264.8553323821
 20
-102.6997380091
 10
266.0770711043
 20
-104.6231013162
 10
267.3591754454
 20
-106.495561104
 10
268.6971383954
 20
-108.3105350729
 10
270.0862565832
 20
-110.0616430045
 10
271.521646811
 20
-111.7427291902
 10
272.9982632193
 20
-113.3478840703
 10
274.5109150258
 20
-114.8714650081
 10
276.0542847718
 20
-116.3081161255
 10
277.6229470153
 20
-117.652787131
 10
279.2113874031
 20
-118.9007510726
 10
280.8140220552
 20
-120.047620955
 10
282.4252171944
 20
-121.0893651608
 10
284.0393089506
 20
-122.0223216236
 10
285.6506232711
 20
-122.8432107006
 10
287.2534958668
 20
-123.5491467022
 10
288.842292124
 20
-124.137648036
 10
290.4114269118
 20
-124.60664593
 10
291.9553842158
 20
-124.9544917055
 10
293.4687365285
 20
-125.1799625726
 10
294.9461639289
 20
-125.2822659284
 10
296.3824727835
 20
-125.2610421437
 10
297.7726140039
 20
-125.116365827
 10
299.1117007956
 20
-124.8487455621
 10
300.395025837
 20
-124.4591221204
 10
301.6180778272
 20
-123.9488651541
 10
302.49765036
 20
-123.4855122886
  0
LINE
  5
124
330
1F
100
AcDbEntity
  8
0
  6
Continuous
 62
     7
370
    25
100
AcDbLine
 10
278.1731618317
 20
-70.8854528715
 30
0.0
 11
320.5995687029
 21
-46.3932095168
 31
0.0
  0
LWPOLYLINE
  5
125
330
1F
100
AcDbEntity
  8
0
  6
Continuous
 62
     7
370
    25
100
AcDbPolyline
 90
       45
 70
   128
 43
0.0
 10
330.7516745531
 20
-101.2383821853
 10
330.2850476635
 20
-102.7584849557
 10
329.7271627056
 20
-104.1907246421
 10
329.0799912643
 20
-105.5300396597
 10
328.3458204657
 20
-106.7716968229
 10
327.5272448951
 20
-107.9113080721
 10
326.6271574268
 20
-108.9448459818
 10
325.6487390012
 20
-109.868657993
 10
324.595447383
 20
-110.679479322
 10
323.4710049413
 20
-111.3744444983
 10
322.2793854946
 20
-111.9510974906
 10
321.0248002675
 20
-112.4074003874
 10
319.7116830075
 20
-112.7417405984
 10
318.3446743168
 20
-112.9529365536
 10
316.9286052514
 20
-113.0402418793
 10
315.4684802484
 20
-113.0033480354
 10
313.9694594404
 20
-112.842385406
 10
312.4368404189
 20
-112.5579228386
 10
310.8760395126
 20
-112.1509656338
 10
309.292572646
 20
-111.6229519926
 10
307.6920358461
 20
-110.9757479333
 10
306.0800854654
 20
-110.2116406977
 10
304.4624181924
 20
-109.3333306672
 10
302.8447509194
 20
-108.3439218198
 10
301.2328005387
 20
-107.2469107609
 10
299.6322637388
 20
-106.0461743655
 10
298.0487968722
 20
-104.7459560776
 10
296.4879959659
 20
-103.3508509139
 10
294.9553769444
 20
-101.8657892244
 10
293.4563561364
 20
-100.2960192686
 10
291.9962311334
 20
-98.6470886679
 10
290.580162068
 20
-96.9248248003
 10
289.2131533773
 20
-95.1353142061
 10
287.9000361174
 20
-93.2848810778
 10
286.6454508902
 20
-91.3800649102
 10
285.4538314435
 20
-89.4275973898
 10
284.3293890018
 20
-87.4343786044
 10
283.2760973836
 20
-85.4074526585
 10
282.297678958
 20
-83.3539827786
 10
281.3975914897
 20
-81.2812259985
 10
280.5790159191
 20
-79.1965075125
 10
279.8448451205
 20
-77.1071947882
 10
279.1976736792
 20
-75.0206715291
 10
278.6397887213
 20
-72.9443115809
 10
278.1731618317
 20
-70.8854528715
  0
LINE
  5
126
330
1F
100
AcDbEntity
  8
0
  6
Continuous
 62
     7
370
    25
100
AcDbLine
 10
353.9556200386
 20
-87.8430295847
 30
0.0
 11
330.7516745531
 21
-101.2383821853
 31
0.0
  0
LWPOLYLINE
  5
127
330
1F
100
AcDbEntity
  8
0
  6
Continuous
 62
     7
370
    25
100
AcDbPolyline
 90
       37
 70
   128
 43
0.0
 10
320.5995687029
 20
-46.3932095168
 10
321.0661955925
 20
-48.4520682262
 10
321.6240805504
 20
-50.5284281744
 10
322.2712519917
 20
-52.6149514335
 10
323.0054227903
 20
-54.7042641578
 10
323.8239983609
 20
-56.7889826438
 10
324.7240858292
 20
-58.8617394239
 10
325.7025042548
 20
-60.9152093038
 10
326.755795873
 20
-62.9421352497
 10
327.8802383147
 20
-64.9353540351
 10
329.0718577614
 20
-66.8878215555
 10
330.3264429885
 20
-68.7926377231
 10
331.6395602485
 20
-70.6430708515
 10
333.0065689392
 20
-72.4325814457
 10
334.4226380046
 20
-74.1548453132
 10
335.8827630076
 20
-75.8037759139
 10
337.3817838156
 20
-77.3735458697
 10
338.9144028371
 20
-78.8586075592
 10
340.4752037434
 20
-80.2537127229
 10
342.0586706099
 20
-81.5539310108
 10
343.6592074099
 20
-82.7546674062
 10
345.2711577906
 20
-83.8516784652
 10
346.8888250636
 20
-84.8410873125
 10
348.5064923366
 20
-85.719397343
 10
350.1184427173
 20
-86.4835045787
 10
351.7189795172
 20
-87.1307086379
 10
353.3024463838
 20
-87.6587222792
 10
354.8632472901
 20
-88.0656794839
 10
356.3958663116
 20
-88.3501420513
 10
357.8948871196
 20
-88.5111046807
 10
359.3550121226
 20
-88.5479985246
 10
360.771081188
 20
-88.4606931989
 10
362.1380898787
 20
-88.2494972437
 10
363.4512071386
 20
-87.9151570327
 10
364.7057923658
 20
-87.4588541359
 10
365.8974118125
 20
-86.8822011436
 10
366.1372606668
 20
-86.7471472565
  0
LINE
  5
128
330
1F
100
AcDbEntity
  8
0
  6
Continuous
 62
     7
370
    25
100
AcDbLine
 10
345.8731058982
 20
-26.6925788833
 30
0.0
 11
343.0442190372
 21
-28.3256605071
 31
0.0
  0
LWPOLYLINE
  5
129
330
1F
100
AcDbEntity
  8
0
  6
Continuous
 62
     7
370
    25
100
AcDbPolyline
 90
       22
 70
   128
 43
0.0
 10
290.3237153409
 20
-69.8374543082
 10
290.3925828295
 20
-69.903992818
 10
291.7579584089
 20
-71.2842732257
 10
293.0868528778
 20
-72.7454085592
 10
294.3735686211
 20
-74.2811342229
 10
295.6125888644
 20
-75.884865816
 10
296.798601327
 20
-77.5497273633
 10
297.9265209984
 20
-79.2685807962
 10
298.9915119398
 20
-81.0340565562
 10
299.9890080187
 20
-82.8385851926
 10
300.9147324855
 20
-84.674429816
 10
301.7647163106
 20
-86.5337192701
 10
302.5353152011
 20
-88.4084818795
 10
303.2232252258
 20
-90.2906796275
 10
303.8254969808
 20
-92.1722426196
 10
304.339548235
 20
-94.0451036828
 10
304.7631750014
 20
-95.9012329533
 10
305.0945609866
 20
-97.7326723049
 10
305.3322853782
 20
-99.5315694689
 10
305.4753289365
 20
-101.2902117007
 10
305.5230783642
 20
-103.0010588481
 10
305.4987862741
 20
-104.1879707802
  0
LINE
  5
12A
330
1F
100
AcDbEntity
  8
0
  6
Continuous
 62
     7
370
    25
100
AcDbLine
 10
321.9410678124
 20
-51.5851452377
 30
0.0
 11
283.340746857
 21
-73.8686362078
 31
0.0
  0
LINE
  5
12B
330
1F
100
AcDbEntity
  8
0
  6
Continuous
 62
     7
370
    25
100
AcDbLine
 10
325.5840895278
 20
-98.2551988491
 30
0.0
 11
347.8724562655
 21
-85.3883986089
 31
0.0
  0
LWPOLYLINE
  5
12C
330
1F
100
AcDbEntity
  8
0
  6
Continuous
 62
     7
370
    25
100
AcDbPolyline
 90
       39
 70
   128
 43
0.0
 10
283.340746857
 20
-73.8686362078
 10
283.8503051745
 20
-75.7457926752
 10
284.4487246126
 20
-77.6322211226
 10
285.1334253183
 20
-79.5197889463
 10
285.9014554704
 20
-81.4003586307
 10
286.7495040052
 20
-83.2658228298
 10
287.6739148908
 20
-85.1081393194
 10
288.6707028885
 20
-86.9193656671
 10
289.7355707341
 20
-88.6916934742
 10
290.8639276634
 20
-90.4174820374
 10
292.0509092037
 20
-92.0892912896
 10
293.291398145
 20
-93.6999138745
 10
294.580046601
 20
-95.2424062182
 10
295.9112990644
 20
-96.7101184641
 10
297.279416357
 20
-98.0967231407
 10
298.6785003725
 20
-99.3962424406
 10
300.1025195036
 20
-100.6030739908
 10
301.5453346447
 20
-101.7120150059
 10
303.0007256587
 20
-102.7182847173
 10
304.4624181924
 20
-103.617544984
 10
305.9241107261
 20
-104.4059189944
 10
307.3795017401
 20
-105.0800079803
 10
308.8223168812
 20
-105.6369058688
 10
310.2463360123
 20
-106.0742118108
 10
311.6454200278
 20
-106.3900405317
 10
313.0135373205
 20
-106.5830304585
 10
314.3447897838
 20
-106.6523495901
 10
315.6334382398
 20
-106.5976990841
 10
316.8739271811
 20
-106.4193145448
 10
318.0609087214
 20
-106.1179650079
 10
319.1892656507
 20
-105.694949625
 10
320.2541334963
 20
-105.1520920625
 10
321.250921494
 20
-104.4917326401
 10
322.1753323796
 20
-103.7167182408
 10
323.0233809144
 20
-102.8303900384
 10
323.7914110665
 20
-101.8365690927
 10
324.4761117722
 20
-100.7395398767
 10
325.0745312103
 20
-99.5440318059
 10
325.5840895278
 20
-98.2551988491
  0
LINE
  5
12D
330
1F
100
AcDbEntity
  8
0
  6
Continuous
 62
     7
370
    25
100
AcDbLine
 10
331.0261049163
 20
-21.3877509027
 30
0.0
 11
246.1732911739
 21
-70.372237612
 31
0.0
  0
LINE
  5
12E
330
1F
100
AcDbEntity
  8
0
  6
Continuous
 62
     7
370
    25
100
AcDbLine
 10
331.0261049163
 20
-27.1035365859
 30
0.0
 11
246.1732911739
 21
-76.0880232952
 31
0.0
  0
LINE
  5
12F
330
1F
100
AcDbEntity
  8
0
  6
Continuous
 62
     7
370
    25
100
AcDbLine
 10
246.1732911739
 20
-70.372237612
 30
0.0
 11
246.1732911739
 21
-76.0880232952
 31
0.0
  0
LINE
  5
130
330
1F
100
AcDbEntity
  8
0
  6
Continuous
 62
     7
370
    25
100
AcDbLine
 10
246.1732911739
 20
-76.0880232952
 30
0.0
 11
256.7798928917
 21
-82.2110841339
 31
0.0
  0
LINE
  5
131
330
1F
100
AcDbEntity
  8
0
  6
Continuous
 62
     7
370
    25
100
AcDbLine
 10
331.0261049163
 20
-12.4058019719
 30
0.0
 11
246.1732911739
 21
-61.3902886813
 31
0.0
  0
LINE
  5
132
330
1F
100
AcDbEntity
  8
0
  6
Continuous
 62
     7
370
    25
100
AcDbLine
 10
331.0261049163
 20
-18.1215876551
 30
0.0
 11
246.1732911739
 21
-67.1060743645
 31
0.0
  0
LINE
  5
133
330
1F
100
AcDbEntity
  8
0
  6
Continuous
 62
     7
370
    25
100
AcDbLine
 10
246.1732911739
 20
-61.3902886813
 30
0.0
 11
246.1732911739
 21
-67.1060743645
 31
0.0
  0
LINE
  5
134
330
1F
100
AcDbEntity
  8
0
  6
Continuous
 62
     7
370
    25
100
AcDbLine
 10
246.1732911739
 20
-67.1060743645
 30
0.0
 11
249.0021780349
 21
-68.7391559883
 31
0.0
  0
LINE
  5
135
330
1F
100
AcDbEntity
  8
0
  6
Continuous
 62
     7
370
    25
100
AcDbLine
 10
283.340746857
 20
-73.8686362078
 30
0.0
 11
278.1731618317
 21
-70.8854528715
 31
0.0
  0
LINE
  5
136
330
1F
100
AcDbEntity
  8
0
  6
Continuous
 62
     7
370
    25
100
AcDbLine
 10
330.7516745531
 20
-101.2383821853
 30
0.0
 11
325.5840895278
 21
-98.2551988491
 31
0.0
  0
LWPOLYLINE
  5
137
330
1F
100
AcDbEntity
  8
0
  6
Continuous
 62
     7
370
    25
100
AcDbPolyline
 90
       25
 70
   128
 43
0.0
 10
354.0309606873
 20
-1.5552515008
 10
354.040553944
 20
-1.3437611697
 10
354.1595704032
 20
-0.7841896821
 10
354.4123306581
 20
-0.2396260357
 10
354.793915018
 20
0.2793304575
 10
355.2968963773
 20
0.7625788998
 10
355.911484776
 20
1.2007134097
 10
356.62571795
 20
1.5852061975
 10
357.425694163
 20
1.9085735485
 10
358.2958427879
 20
2.1645214849
 10
359.2192273716
 20
2.3480682713
 10
360.1778752835
 20
2.4556413784
 10
361.1531275324
 20
2.4851470178
 10
362.1260019426
 20
2.436010896
 10
363.0775626204
 20
2.3091893916
 10
363.9892885195
 20
2.107150941
 10
364.8434339324
 20
1.8338279928
 10
365.6233738903
 20
1.4945404672
 10
366.3139277489
 20
1.0958922101
 10
366.9016546629
 20
0.6456424563
 10
367.3751151966
 20
0.1525548051
 10
367.7250939791
 20
-0.3737733533
 10
367.9447790715
 20
-0.9230976399
 10
368.0298945534
 20
-1.4847260823
 10
368.0309606873
 20
-1.5552515008
  0
LWPOLYLINE
  5
138
330
1F
100
AcDbEntity
  8
0
  6
Continuous
 62
     7
370
    25
100
AcDbPolyline
 90
       27
 70
   128
 43
0.0
 10
314.361913129
 20
11.5116573905
 10
315.4540727376
 20
12.0864252629
 10
316.6334389972
 20
12.6005669693
 10
317.8899499709
 20
13.0496960339
 10
319.21288555
 20
13.4299806458
 10
320.5909589147
 20
13.7381763509
 10
322.0124128288
 20
13.971653732
 10
323.4651199488
 20
14.1284208425
 10
324.9366862897
 20
14.2071402007
 10
326.4145569663
 20
14.2071402007
 10
327.8861233072
 20
14.1284208425
 10
329.3388304272
 20
13.971653732
 10
330.7602843413
 20
13.7381763509
 10
332.1383577059
 20
13.4299806458
 10
333.4612932851
 20
13.0496960339
 10
334.7178042588
 20
12.6005669693
 10
335.8971705184
 20
12.0864252629
 10
336.989330127
 20
11.5116573905
 10
337.9849651637
 20
10.8811670688
 10
338.8755812216
 20
10.2003334191
 10
339.6535798783
 20
9.4749650738
 10
340.3123235238
 20
8.7112506201
 10
340.8461919895
 20
7.9157058004
 10
341.2506304978
 20
7.0951179225
 10
341.522188522
 20
6.2564879529
 10
341.6585492248
 20
5.4069707867
 10
341.675621628
 20
4.9803924959
  0
ARC
  5
139
330
1F
100
AcDbEntity
  8
0
  6
Continuous
 62
     7
370
    25
100
AcDbCircle
 10
317.6755123289
 20
4.1872160888
 30
0.0
 40
8.039115625423783
100
AcDbArc
 50
114.3421384431
 51
174.3377205993
  0
ENDSEC
  0
SECTION
  2
OBJECTS
  0
DICTIONARY
  5
C
330
0
100
AcDbDictionary
281
     1
  3
ACAD_GROUP
350
D
  3
ACAD_LAYOUT
350
1A
  3
ACAD_MLINESTYLE
350
17
  3
ACAD_PLOTSETTINGS
350
19
  3
ACAD_PLOTSTYLENAME
350
E
  3
ACAD_SCALELIST
350
47
  3
DWGPROPS
350
13A
  0
DICTIONARY
  5
D
102
{ACAD_REACTORS
330
C
102
}
330
C
100
AcDbDictionary
281
     1
  0
DICTIONARY
  5
1A
102
{ACAD_REACTORS
330
C
102
}
330
C
100
AcDbDictionary
281
     1
  3
Layout1
350
1E
  3
Layout2
350
26
  3
Model
350
22
  0
DICTIONARY
  5
17
102
{ACAD_REACTORS
330
C
102
}
330
C
100
AcDbDictionary
281
     1
  3
Standard
350
18
  0
DICTIONARY
  5
19
102
{ACAD_REACTORS
330
C
102
}
330
C
100
AcDbDictionary
281
     1
  0
ACDBDICTIONARYWDFLT
  5
E
102
{ACAD_REACTORS
330
C
102
}
330
C
100
AcDbDictionary
281
     1
  3
Normal
350
F
100
AcDbDictionaryWithDefault
340
F
  0
DICTIONARY
  5
47
102
{ACAD_REACTORS
330
C
102
}
330
C
100
AcDbDictionary
281
     1
  3
A0
350
48
  3
A1
350
49
  3
A2
350
4A
  3
A3
350
4B
  3
A4
350
4C
  3
A5
350
4D
  3
A6
350
4E
  3
A7
350
4F
  3
A8
350
50
  3
A9
350
51
  3
B0
350
52
  3
B1
350
53
  3
B2
350
54
  3
B3
350
55
  3
B4
350
56
  3
B5
350
57
  3
B6
350
58
  3
B7
350
59
  3
B8
350
5A
  3
B9
350
5B
  3
C0
350
5C
  3
C1
350
5D
  3
C2
350
5E
  3
C3
350
5F
  3
C4
350
60
  3
C5
350
61
  3
C6
350
62
  3
C7
350
63
  3
C8
350
64
  3
C9
350
65
  3
D0
350
66
  3
D1
350
67
  3
D2
350
68
  0
XRECORD
  5
13A
102
{ACAD_REACTORS
330
C
102
}
330
C
100
AcDbXrecord
280
     1
  1
DWGPROPS COOKIE
  2

  3

  4

  6

  7

  8
b.kav
  9

300
=
301
=
302
=
303
=
304
=
305
=
306
=
307
=
308
=
309
=
 40
0.0
 41
2459741.489406424
 42
2459741.489406609
  1

 90
        0
  0
LAYOUT
  5
1E
102
{ACAD_REACTORS
330
1A
102
}
330
1A
100
AcDbPlotSettings
  1

  2
none_device
  4

  6

 40
0.0
 41
0.0
 42
0.0
 43
0.0
 44
0.0
 45
0.0
 46
0.0
 47
0.0
 48
0.0
 49
0.0
140
0.0
141
0.0
142
1.0
143
1.0
 70
   688
 72
     1
 73
     0
 74
     5
  7

 75
    16
147
1.0
148
0.0
149
0.0
100
AcDbLayout
  1
Layout1
 70
     1
 71
     1
 10
0.0
 20
0.0
 11
420.0
 21
297.0
 12
0.0
 22
0.0
 32
0.0
 14
1.0000000000E+20
 24
1.0000000000E+20
 34
1.0000000000E+20
 15
-1.0000000000E+20
 25
-1.0000000000E+20
 35
-1.0000000000E+20
146
0.0
 13
0.0
 23
0.0
 33
0.0
 16
1.0
 26
0.0
 36
0.0
 17
0.0
 27
1.0
 37
0.0
 76
     0
330
1B
  0
LAYOUT
  5
26
102
{ACAD_REACTORS
330
1A
102
}
330
1A
100
AcDbPlotSettings
  1

  2
none_device
  4

  6

 40
0.0
 41
0.0
 42
0.0
 43
0.0
 44
0.0
 45
0.0
 46
0.0
 47
0.0
 48
0.0
 49
0.0
140
0.0
141
0.0
142
1.0
143
1.0
 70
   688
 72
     1
 73
     0
 74
     5
  7

 75
    16
147
1.0
148
0.0
149
0.0
100
AcDbLayout
  1
Layout2
 70
     1
 71
     2
 10
0.0
 20
0.0
 11
0.0
 21
0.0
 12
0.0
 22
0.0
 32
0.0
 14
0.0
 24
0.0
 34
0.0
 15
0.0
 25
0.0
 35
0.0
146
0.0
 13
0.0
 23
0.0
 33
0.0
 16
1.0
 26
0.0
 36
0.0
 17
0.0
 27
1.0
 37
0.0
 76
     0
330
23
  0
LAYOUT
  5
22
102
{ACAD_REACTORS
330
1A
102
}
330
1A
100
AcDbPlotSettings
  1

  2
none_device
  4
Letter_(8.50_x_11.00_Inches)
  6

 40
6.35
 41
6.35
 42
6.35000508
 43
6.35000508
 44
215.9
 45
279.4
 46
0.0
 47
0.0
 48
0.0
 49
0.0
140
0.0
141
0.0
142
1.0
143
1.0
 70
  1712
 72
     1
 73
     0
 74
     0
  7

 75
     0
147
1.0
148
0.0
149
0.0
100
AcDbLayout
  1
Model
 70
     1
 71
     0
 10
0.0
 20
0.0
 11
279.4
 21
215.9
 12
0.0
 22
0.0
 32
0.0
 14
0.0
 24
0.0
 34
0.0
 15
279.4
 25
215.9
 35
0.0
146
0.0
 13
0.0
 23
0.0
 33
0.0
 16
1.0
 26
0.0
 36
0.0
 17
0.0
 27
1.0
 37
0.0
 76
     0
330
1F
331
29
  0
MLINESTYLE
  5
18
102
{ACAD_REACTORS
330
17
102
}
330
17
100
AcDbMlineStyle
  2
Standard
 70
     0
  3

 62
   256
 51
90.0
 52
90.0
 71
     2
 49
0.5
 62
   256
  6
BYLAYER
 49
-0.5
 62
   256
  6
BYLAYER
  0
ACDBPLACEHOLDER
  5
F
102
{ACAD_REACTORS
330
E
102
}
330
E
  0
SCALE
  5
48
102
{ACAD_REACTORS
330
47
102
}
330
47
100
AcDbScale
 70
     0
300
1:1
140
1.0
141
1.0
290
     1
  0
SCALE
  5
49
102
{ACAD_REACTORS
330
47
102
}
330
47
100
AcDbScale
 70
     0
300
1:2
140
1.0
141
2.0
290
     0
  0
SCALE
  5
4A
102
{ACAD_REACTORS
330
47
102
}
330
47
100
AcDbScale
 70
     0
300
1:4
140
1.0
141
4.0
290
     0
  0
SCALE
  5
4B
102
{ACAD_REACTORS
330
47
102
}
330
47
100
AcDbScale
 70
     0
300
1:5
140
1.0
141
5.0
290
     0
  0
SCALE
  5
4C
102
{ACAD_REACTORS
330
47
102
}
330
47
100
AcDbScale
 70
     0
300
1:8
140
1.0
141
8.0
290
     0
  0
SCALE
  5
4D
102
{ACAD_REACTORS
330
47
102
}
330
47
100
AcDbScale
 70
     0
300
1:10
140
1.0
141
10.0
290
     0
  0
SCALE
  5
4E
102
{ACAD_REACTORS
330
47
102
}
330
47
100
AcDbScale
 70
     0
300
1:16
140
1.0
141
16.0
290
     0
  0
SCALE
  5
4F
102
{ACAD_REACTORS
330
47
102
}
330
47
100
AcDbScale
 70
     0
300
1:20
140
1.0
141
20.0
290
     0
  0
SCALE
  5
50
102
{ACAD_REACTORS
330
47
102
}
330
47
100
AcDbScale
 70
     0
300
1:30
140
1.0
141
30.0
290
     0
  0
SCALE
  5
51
102
{ACAD_REACTORS
330
47
102
}
330
47
100
AcDbScale
 70
     0
300
1:40
140
1.0
141
40.0
290
     0
  0
SCALE
  5
52
102
{ACAD_REACTORS
330
47
102
}
330
47
100
AcDbScale
 70
     0
300
1:50
140
1.0
141
50.0
290
     0
  0
SCALE
  5
53
102
{ACAD_REACTORS
330
47
102
}
330
47
100
AcDbScale
 70
     0
300
1:100
140
1.0
141
100.0
290
     0
  0
SCALE
  5
54
102
{ACAD_REACTORS
330
47
102
}
330
47
100
AcDbScale
 70
     0
300
2:1
140
2.0
141
1.0
290
     0
  0
SCALE
  5
55
102
{ACAD_REACTORS
330
47
102
}
330
47
100
AcDbScale
 70
     0
300
4:1
140
4.0
141
1.0
290
     0
  0
SCALE
  5
56
102
{ACAD_REACTORS
330
47
102
}
330
47
100
AcDbScale
 70
     0
300
8:1
140
8.0
141
1.0
290
     0
  0
SCALE
  5
57
102
{ACAD_REACTORS
330
47
102
}
330
47
100
AcDbScale
 70
     0
300
10:1
140
10.0
141
1.0
290
     0
  0
SCALE
  5
58
102
{ACAD_REACTORS
330
47
102
}
330
47
100
AcDbScale
 70
     0
300
100:1
140
100.0
141
1.0
290
     0
  0
SCALE
  5
59
102
{ACAD_REACTORS
330
47
102
}
330
47
100
AcDbScale
 70
     0
300
1/128" = 1'-0"
140
0.0078125
141
12.0
290
     0
  0
SCALE
  5
5A
102
{ACAD_REACTORS
330
47
102
}
330
47
100
AcDbScale
 70
     0
300
1/64" = 1'-0"
140
0.015625
141
12.0
290
     0
  0
SCALE
  5
5B
102
{ACAD_REACTORS
330
47
102
}
330
47
100
AcDbScale
 70
     0
300
1/32" = 1'-0"
140
0.03125
141
12.0
290
     0
  0
SCALE
  5
5C
102
{ACAD_REACTORS
330
47
102
}
330
47
100
AcDbScale
 70
     0
300
1/16" = 1'-0"
140
0.0625
141
12.0
290
     0
  0
SCALE
  5
5D
102
{ACAD_REACTORS
330
47
102
}
330
47
100
AcDbScale
 70
     0
300
3/32" = 1'-0"
140
0.09375
141
12.0
290
     0
  0
SCALE
  5
5E
102
{ACAD_REACTORS
330
47
102
}
330
47
100
AcDbScale
 70
     0
300
1/8" = 1'-0"
140
0.125
141
12.0
290
     0
  0
SCALE
  5
5F
102
{ACAD_REACTORS
330
47
102
}
330
47
100
AcDbScale
 70
     0
300
3/16" = 1'-0"
140
0.1875
141
12.0
290
     0
  0
SCALE
  5
60
102
{ACAD_REACTORS
330
47
102
}
330
47
100
AcDbScale
 70
     0
300
1/4" = 1'-0"
140
0.25
141
12.0
290
     0
  0
SCALE
  5
61
102
{ACAD_REACTORS
330
47
102
}
330
47
100
AcDbScale
 70
     0
300
3/8" = 1'-0"
140
0.375
141
12.0
290
     0
  0
SCALE
  5
62
102
{ACAD_REACTORS
330
47
102
}
330
47
100
AcDbScale
 70
     0
300
1/2" = 1'-0"
140
0.5
141
12.0
290
     0
  0
SCALE
  5
63
102
{ACAD_REACTORS
330
47
102
}
330
47
100
AcDbScale
 70
     0
300
3/4" = 1'-0"
140
0.75
141
12.0
290
     0
  0
SCALE
  5
64
102
{ACAD_REACTORS
330
47
102
}
330
47
100
AcDbScale
 70
     0
300
1" = 1'-0"
140
1.0
141
12.0
290
     0
  0
SCALE
  5
65
102
{ACAD_REACTORS
330
47
102
}
330
47
100
AcDbScale
 70
     0
300
1-1/2" = 1'-0"
140
1.5
141
12.0
290
     0
  0
SCALE
  5
66
102
{ACAD_REACTORS
330
47
102
}
330
47
100
AcDbScale
 70
     0
300
3" = 1'-0"
140
3.0
141
12.0
290
     0
  0
SCALE
  5
67
102
{ACAD_REACTORS
330
47
102
}
330
47
100
AcDbScale
 70
     0
300
6" = 1'-0"
140
6.0
141
12.0
290
     0
  0
SCALE
  5
68
102
{ACAD_REACTORS
330
47
102
}
330
47
100
AcDbScale
 70
     0
300
1'-0" = 1'-0"
140
12.0
141
12.0
290
     0
  0
ENDSEC
  0
EOF
